Travers Pat - Runnin From The Future Chords & Tabs

 

Runnin From The Future Chords & Tabs

Travers Pat Chords & Tabs

Version: 1 Type: Tab 0 ratings
1 star 2 stars 3 stars 4 stars 5 stars
comments

Runnin From The Future Tab

   
-----------------------------------------------------------------------
Pat Travers - Runnin' from the Future
Album: Putting it Strait
-----------------------------------------------------------------------
Tabbed by: Edo
Email: suttoned@earthlink.net

Intro: (mutted until chords)
e|--------------------------------------------------------------------|
b|--------------------------------------------------------------------|
g|-------------------------------------------------------5----4-------|
d|-------------------------------------------------------5----4-------|
a|----0---3---00---3---00---3---00---3---00---etc.-------3----2-------|
E|--------------------------------------------------------------------|

   Lick I
e|--------------------------------------------------------------------|
b|--------------------------------------------------------------------|
g|----2-x-----------------------------------2---------------5----4----|
d|----2-x----4--p2----5--p2-----------------2---------------5----4----|
a|----0-x----------------------2--/4--------0---------------3----2----|
E|-----------------------------------------------------------------x3-|
   
e|--------------------------------------------------------------------|
b|--------------------------------------------------------------------|
g|--------------2-----------------------------------------------------|
d|------------------5--p2--p0---2--p0---------------------------------|
a|-------------------------------------3----3--h0---------------------|
E|--------------------------------------------------3~----------------|

e|--------------------------------------------------------------------|
b|--------------------------------------------------------------------|
g|---2--x----5---4------2---------------------------------------------|
d|---2--x----5---4-----------5--p2--p0---2--p0------------------------|
a|---0--x----3---2------------------------------3----3--h0------------|
E|-----------------------------------------------------------3~----x4-|
[ Tab from: http://www.guitartabs.cc/tabs/t/travers_pat/runnin_from_the_future_tab.html ]
   4th time ending with
e|--------------------------------------------------------------------|
b|--------------------------------------------------------------------|
g|---3----------------------------------------------------------------|
d|---2------5---------------------------------------------------------|
a|---2------5---------------------------------------------------------|
E|---1------3---------------------------------------------------------|

   Verse I:  Lick II
   I'm just runnin from the future
e|--------------------------------------------------------------------|
b|--------------------------------------------------------------------|
g|--------------------------------------------------------------------|
d|----2--2-------5---4-----------------2----------0---2-p0------------|
a|----2--2-------5---4------------------------------------------------|
E|----0--0-------3---2----0----2-/3--------------------------3-----x4-|
e|--------------------------------------------------------------------|
b|--------------------------------------------------------------------|
g|--------------------------------------------------------------------|
d|----2--2-------5---4-----------------2------------------------------|
a|----2--2-------5---4---------------------4-p0--5-p0-----------------|
E|----0--0-------3---2----0----2-/3----------------------3~-----------|

e|--------------------------------------------------------------------|
b|--------------------------------------------------------------------|
g|----2---------------------------------------------------------------|
d|----2-------------5--p2--p0---2--p0---------------------------------|
a|----0--------------------------------3----3--h0---------------------|
E|--------------------------------------------------3~----------------|

e|--------------------------------------------------------------------|
b|--------------------------------------------------------------------|
g|---2--x----5---4--------------2~------------------------------------|
d|---2--x----5---4-------------------4--p2--5--p2---------------------|
a|---0--x----3---2------0--/3-----------------------3--p0-------------|
E|-----------------------------------------------------------3~-------|

| /  slide up
|   slide down
| h  hammer-on
| p  pull-off
| ~  vibrato
| +  harmonic
| x  Mute note
=======================================================================
Comments