Travers Pat - Makin Magic Chords & Tabs

 

Makin Magic Chords & Tabs

Travers Pat Chords & Tabs

Version: 1 Type: Tab 2 ratings
1 star 2 stars 3 stars 4 stars 5 stars
comments

Makin Magic Tab

   
-----------------------------------------------------------
               Makin' Magic - Pat Travers
-------------------------------------------------------------------------------
Tabbed by: Edo
Email: edwheeler@earthlink.net

Tuning: Standard

Rhythm I
e|--------------------------------------------------------|
b|--------------------------------------------------------|
g|--------------------------------------------------------|
d|--------2-----------------------------------------------|
a|------------4--5---2---4---5---2--4---------------------|
E|--0--3--------------------------------------------------|

e|--------------------------------------------------------|
b|--------------------------------------------------------|
g|--------------------------------------------------------|
d|--------2-----------------------------------------------|
a|------------4--5---2---4---5---2--4--4--p2--------------|
E|--0--3--------------------------------------3-----------|

e|--------------------------------------------------------|
b|--------------------------------------------------------|
g|--------------------------------------------------------|
d|---2-----------------------------------2----------------|
a|-------4--5---2---4--5---2--4--------------4--5---------|
E|----------------------------------0-3-------------------|

e|--------------------------------------------------------|
b|--------------------------------------------------------|
g|--------------------------------------------------------|
d|--------------------------------------------------------|
a|---2---4--5---2---4--4--p2--3-------2---4---------------|
E|--------------------------------------------------------|

Continue over verse

(25sec) Oh when she stares with those big green eyes
Rhythm II
e|--------------------------------------------------------|
b|--------------------------------------------------------|
g|-------3-----------3-----------3----------3-------------|
d|--3----3-----------3-----------3----------3-------------|
a|--3-------------------------------------------2---4-----|
E|--1-----------------------------------------------------|

e|--------------------------------------------------------|
b|--------------------------------------------------------|
g|-------4-----------4-----------4----------4-------------|
d|--3----4-----------4-----------4----------4-------------|
a|--3-------------------------------------------2---4-----|
E|--1-----------------------------------------------------|

e|--------------------------------------------------------|
b|--------------------------------------------------------|
g|-------2-----------2-----------2----------2-------------|
d|--3----2-----------2-----------2----------2-------------|
a|--3-------------------------------------------2---4-----|
E|--1-----------------------------------------------------|
[ Tab from: http://www.guitartabs.cc/tabs/t/travers_pat/makin_magic_tab.html ]
				    Lord she  don't make a sound
e|--------------------------------------------------------|
b|--------------------------------------------------------|
g|-------4-----------4--------------3-------------5-------|
d|--3----4-----------4--------------3-------------5-------|
a|--3-------------------------------1--------1----3-------|
E|--1---------------------1---3-----------3---------------|

Back to verse


(1.25)  Rhythm for solo

e|--------------------------------------------------------|
b|--------------------------------------------------------|
g|--------------------------------------------------------|
d|-----------------------------------------7---4----------|
a|-----------------3--2--0-----------------7---4----------|
E|--2--0--2--0--2-----------2--0--2--x-x---5---2----------|

e|--------------------------------------------------------|
b|--------------------------------------------------------|
g|--------------------------------------------------------|
d|-----------------------------------------2---4----------|
a|-----------------3--2--0-----------------2---4----------|
E|--2--0--2--0--2-----------2--0--2--x-x---0---2----------|

e|--------------------------------------------------------|
b|--------------------------------------------------------|
g|--------------------------------------------------------|
d|-----------------------------------------7---4----------|
a|-----------------3--2--0-----------------7---4----------|
E|--2--0--2--0--2-----------2--0--2--x-x---5---2----------|


e|--------------------------------------------------------|
b|--------------------------------------------------------|
g|------------------------------------------------2-------|
d|------------------------------------------------2-------|
a|-----------------3--2--0------------0--2--3--2--0-------|
E|--2--0--2--0--2-----------2--0--2-----------------------|

(1.39) Play open A for a measure
e|--------------------------------------------------------|
b|--------------------------------------------------------|
g|---2----------------------------------------------------|
d|---2----------------------------------------------------|
a|---0----------------------------------------------------|
E|--------------------------------------------------------|

Play Bm for a measure
e|--------------------------------------------------------|
b|--------------------------------------------------------|
g|---4----------------------------------------------------|
d|---4----------------------------------------------------|
a|---2----------------------------------------------------|
E|--------------------------------------------------------|


e|--------------------------------------------------------|
b|--------------------------------------------------------|
g|--------------------------------------------------------|
d|---2----------------------------------------------------|
a|----------4--5------2--4---------2-----2--4---3---------|
E|------------------------------5---------------1---------|


Back to Rhythm II

Back to Rhythm I

Final solo is all over the place. Good luck with that.
| /  slide up
|   slide down
| h  hammer-on
| p  pull-off
| ~  vibrato
| +  harmonic
| x  Mute note
===============================================================================
Comments