Travers Pat - Life In London Chords & Tabs

 

Life In London Chords & Tabs

Travers Pat Chords & Tabs

Version: 2 Type: Tab 0 ratings
1 star 2 stars 3 stars 4 stars 5 stars
comments

Life In London Tab

   
----------------------------------------------------------------
              Life in London: Pat Travers
-------------------------------------------------------------------------------
Tabbed by:  Edo
Email: edwheeler@earthlink.net

Tuning: Standard.  Muting changes subtly throughout so no muting is listed.  Just listen and use your palm.  The meat of the rhythm is here.  I will post solo parts at a later date.


INTRO:
e|-------------------------------------------------------------|
b|-------------------------------------------------------------|
g|-2--2-----------5--5-----------2--2--------------------------|
d|-2--2-----------5--5-----------2--2--7~----------------------|
a|-0--0--0-3-0-0--3--3--0-3-0-3--0--0-----------5--------5-----|
E|----------------------------------------0--3-----0--2--------|


e|-------------------------------------------------------------|
b|-------------------------------------------------------------|
g|-2--2------------5--5-----------2--2----4----7---------------|
d|-2--2------------5--5-----------2--2----5----7---------------|
a|-0--0--0-2-0-2---3--3--0-2-0-2--0--0----5----5---------------|
E|----------------------------------------3--------------------|


e|-------------------------------------------------------------|
b|-------------------------------------------------------------|
g|----------2--2------------5--5-----------2--2----------------|
d|----------2--2------------5--5-----------2--2----------------|
a|-3-p0-----0--0--0-3-p0----3--3--0-3-p0---0--0--0---0-5---0-5-|
E|-------3---------------3---------------3---------3-----2-----|


e|-------------------------------------------------------------|
b|-------------------------------------------------------------|
g|---------2--2------------5--5-----------2--2-----------------|
d|---------2--2------------5--5-----------2--2-----------------|
a|-3-p0----0--0--0-3-p0----3--3--0-3-p0---0--0--0--------0-3-2-|
E|------3---------------3---------------3---------3-p0-3------3|





(19sec) Life 	in	London	 is	 bittersweet		      3x
e|-------------------------------------------------------------|
b|-------------------------------------------------------------|
g|-2--2------------5--5-----------2--2-------------------------|
d|-2--2------------5--5-----------2--2-------------------------|
a|-0--0--0-2-0-----3--3--0-2-0----0--0--0---0--5---0--5-3-p0---|
E|-------------3---------------3----------3------2-----------3-|


e|-------------------------------------------------------------|
b|-------------------------------------------------------------|
g|---------2--2------------5--5-----------2--2-----------------|
d|---------2--2------------5--5-----------2--2---5-5--7--------|
a|-3-p0----0--0--0-3-p0----3--3--0-3-p0---0--0---5-5--7--------|
E|------3---------------3---------------3--------3-5--5--------|
[ Tab from: http://www.guitartabs.cc/tabs/t/travers_pat/life_in_london_tab_ver_2.html ]
(39sec)Whats going down…    Play this chord for several measures
e|---------------1--1----------------------------1-1-----------|
b|---------------1--1----------------------------1-1-----------|
g|-2--2----------2--2-------------2--2-----------2-2-----------|
d|-3--3----------3--3-------------3--3-----------3-3-----------|
a|-3--3----------3--3-------------3--3-----------3-3-----------|
E|-1--1----------1--1-------------1--1-----------1-1-----------|

(49sec) has always been the drug for me…  solo-----
e|-------------------------------------------------------------|
b|-------------------------------------------------------------|
g|-3-3-----------------------------------------2-2-------------|
d|-2-2------------------------5----------------2-2-------------|
a|-2-2------------------------5-------3-p0-----0-0-------------|
E|-1-1------------------------3------------~3------------------|


e|-------------------------------------------------------------|
b|-------------------------------------------------------------|
g|------------5-5------------2-2-------------------------------|
d|------------5-5------------2-2-------------------------------|
a|-0-3-p0-----3-3--0-3-p0----0-0----0-----0--5----0--5---------|
E|---------3--------------3------------3-------2---------------|

end solo
e|-------------------------------------------------------------|
b|-------------------------------------------------------------|
g|---------2--2------------5--5-----------2--2-----------------|
d|---------2--2------------5--5-----------2--2-----------------|
a|-3-p0----0--0--0-3-p0----3--3--0-3-p0---0--0--0--------0-3-2-|
E|------3---------------3---------------3---------3-p0-3------3|

Verse II: same chords as Verse I, only ends with…

(1.17)			But the …	
e|-------------------------------------------------------------|
b|-------------------------------------------------------------|
g|--2---------------4-4---------------4-4----------------------|
d|--3-------5-------4-4---------------4-4----------------------|
a|--3-------5-------2-4---------------2-2----------------------|
E|--1-------3--------------------------------------------------|


(1.24) To be running as far as I…				
e|-------------------------------------------------------------|
b|-------------------------------------------------------------|
g|--5-5--------------------------------5-5---------------------|
d|--5-5--------------------------------5-5---------------------|
a|--3-3--------------------------------3-3---------------------|
E|-------------------------------------------------------------|


    like to go today …………			
e|-------------------------------------------------------------|
b|-------------------------------------------------------------|
g|----------7-----9--------------------------------------------|
d|----------7-----9--------------------------------------------|
a|----------5-----7--------------------------------------------|
E|-------------------------------------------------------------|

Solo over two measures of verse rhythm

Another verse same rhythm

Main solo is over these chrods

AMaj       GMaj      Dm-sus    FMaj

and finish playing all the same riffs from above.


| /  slide up
|   slide down
| h  hammer-on
| p  pull-off
| ~  vibrato
| +  harmonic
| x  Mute note
===============================================================================
Comments