Travers Pat - Life In London Chords & Tabs

 

Life In London Chords & Tabs

Travers Pat Chords & Tabs

Version: 1 Type: Tab 0 ratings
1 star 2 stars 3 stars 4 stars 5 stars
comments

Life In London Tab

   
-------------------------------------------------------------------------------
                             Life in London: Pat Travers
		(One of the greatest guitarist ever!)
-------------------------------------------------------------------------------
Tabbed by:  Edo
Email: edwheeler@earthlink.net

Tuning: Standard.  Muting changes subtly throughout so no muting is listed.  Just listen.

INTRO:
e|-------------------------------------------------------------------------------------------------------|
b|-------------------------------------------------------------------------------------------------------|
g|------2----2-----------------5----5------------------2---2------------------------------------------|
d|------2----2-----------------5----5------------------2---2-----7~----------------------------------|
a|------0----0---0-3-0-0----3----3----0-3-0-3----0---0----------------------5--------------5---|
E|-------------------------------------------------------------------------0----3---------0----3------|


e|-------------------------------------------------------------------------------------------------------|
b|-------------------------------------------------------------------------------------------------------|
g|------2----2----------------------5----5---------------------2---2---------4--------7--------------|
d|------2----2----------------------5----5---------------------2---2---------5--------7--------------|
a|------0----0-----0--2--0--0----3----3----0--2--0--2----0---0---------5--------5--------------|
E|-------------------------------------------------------------------------------3-----------------------|


e|------------------------------------------------------------------------------------------------------------|
b|-----------------------------------------------------------------------------------------------------------|
g|-------------------2----2------------------5----5--------------------2----2------------------------------|
d|-------------------2----2------------------5----5--------------------2----2------------------------------|
a|------3-p0------------------0-3-p0-------3----3----0-2-p0-------0----0------------0--5----0--5-|
E|-------------3~-----------------------3-------------------------3~-------------0--3---------3----------|


e|---------------------------------------------------------------------------------------------------------|
b|---------------------------------------------------------------------------------------------------------|
g|-------------------2--2--------------------5----5--------------------2----2---------------------------|
d|-------------------2--2--------------------5----5--------------------2----2---------------------------|
a|------3-p0------------------0-3-p0-----3----3----0-2-p0-------0----0-------------0-3-2--------|
E|-------------3~-----------------------3-------------------------3~-----------0-3-0-3----------3----|


(19 sec)   Life   in   london   is   bittersweet…
e|---------------------------------------------------------------------------------------------------------|
b|---------------------------------------------------------------------------------------------------------|
g|-------2--2-----------------------5--5-------------------2--2-----------------------------------------|
d|-------2--2-----------------------5--5-------------------2--2-----------------------------------------|
a|-------0--0--0-3-p0------------3--3----0-3-p0------0--0--0---------0-5-------0-5--------------|
E|-------------------------0---3------------------------3---------------3---------3---------------------|


Play this twice
e|---------------------------------------------------------------------------------------------------------|
b|---------------------------------------------------------------------------------------------------------|
g|---------------------2--2------------------5--5-------------------2--2--------------------------------|
d|---------------------2--2------------------5--5-------------------2--2--------------------------------|
a|-----3-p0---------0--0--0-3-p0-------3--3----0-3-p0-------0--0--0-------0-5-----0-5---------|
E|----------------3----------------------3------------------------3---------------3---------3--------------|


e|---------------------------------------------------------------------------------------------------------|
b|---------------------------------------------------------------------------------------------------------|
g|---------------------2--2------------------5--5-------------------2--2-------5-5-------7-----10----|
d|---------------------2--2------------------5--5-------------------2--2-------5-5-------7-----10----|
a|-----3-p0---------0--0--0-3-p0-------3--3----0-3-p0------0--0-------3-3-------5------8-----|
E|----------------3----------------------3------------------------3-----------------------------------------|


(39 sec) Whats   going   down …			is just the same old sound…
e|---------------------------------------------------------------------------------------------------------|
b|---------------------------------------------------------------------------------------------------------|
g|-----10---------------------------------------10--10--------------------------------------------------|
d|-----10---------------------------------------10--10--------------------------------------------------|
a|------8-----------------------------------------8--8----------------------------------------------------|
E|---------------------------------------------------------------------------------------------------------|

[ Tab from: http://www.guitartabs.cc/tabs/t/travers_pat/life_in_london_tab.html ]
		you know that energy			has always been the drug for me 
e|---------------------------------------------------------------------------------------------------------|
b|---------------------------------------------------------------------------------------------------------|
g|-----10----10-------------------------------10--10---------------------------------------------------|
d|-----10----10-------------------------------10--10--------------------------------------------------|
a|------8------8--------------------------------8--8----------------------------------------------------|
E|---------------------------------------------------------------------------------------------------------|


(49 sec) solo over this
e|---------------------------------------------------------------------------------------------------------|
b|---------------------------------------------------------------------------------------------------------|
g|---------------------2--2------------------5--5-------------------2--2--------------------------------|
d|---------------------2--2------------------5--5-------------------2--2--------------------------------|
a|-----3-p0---------0--0--0-3-p0-------3--3----0-3-p0------0--0--0-------0-5-----0-5---------|
E|----------------3----------------------3------------------------3---------------3-------3--------------|


e|---------------------------------------------------------------------------------------------------------|
b|---------------------------------------------------------------------------------------------------------|
g|-------------------2--2--------------------5----5--------------------2----2---------------------------|
d|-------------------2--2--------------------5----5--------------------2----2---------------------------|
a|------3-p0------------------0-3-p0-----3----3----0-2-p0-------0----0---------------0-3-2--------|
E|---------------3~-----------------------3-------------------------3~-----------0-3-0-3----------3----|

Next verse is same rhythm as last…


Bridge
(1.19)			 But the …			… just doesn't seem
e|---------------------------------------------------------------------------------------------------------|
b|---------------------------------------------------------------------------------------------------------|
g|-----2------------------4----------------4----4----------------------------------------5--5-----------|
d|-----3-----5-----------4----------------4----4----------------------------------------5--5-----------|
a|-----3-----5-----------2----------------2----2----------------------------------------3--3------------|
E|----1-----3---------------------------------------------------------------------------------------------|


(1.24)	to be running as far as I		as     I'd     like     to     go     today
e|---------------------------------------------------------------------------------------------------------|
b|---------------------------------------------------------------------------------------------------------|
g|-------------------------------------5---5-------------------------------------7-------9---------------|
d|-------------------------------------5---5-------------------------------------7-------9---------------|
a|-------------------------------------3---3-------------------------------------5-------7---------------|
E|--------------------------------------------------------------------------------------------------------|


(1.29)  day…..										repeat
e|---------------------------------------------------------------------------------------------------------|
B|--------------------------------------------------------------------------------------------------------|
G|---------------------------------------------9--9-----------------------------------------9--9-----------|
D|---------------------------------------------9--9-----------------------------------------9--9-----------|
A|------7-7-7-7-7-7-7-7-7-7-7-7-7-7--7--7-----7-7-7-7-7-7-7-7-7-7-7-7-7-7--7--7-----------|
E|---------------------------------------------------------------------------------------------------------|


(1.39) solo over this
e|---------------------------------------------------------------------------------------------------------|
b|---------------------------------------------------------------------------------------------------------|
g|---------------------2--2------------------5--5-------------------2--2--------------------------------|
d|---------------------2--2------------------5--5-------------------2--2--------------------------------|
a|-----3-p0---------0--0--0-3-p0------3--3----0-3-p0-------0--0--0-------0-5-----0-5---------|
E|---------------3----------------------3------------------------3---------------3---------3--------------|


e|---------------------------------------------------------------------------------------------------------|
b|---------------------------------------------------------------------------------------------------------|
g|-------------------2--2--------------------5----5--------------------2----2---------------------------|
d|-------------------2--2--------------------5----5--------------------2----2---------------------------|
a|------3-p0------------------0-3-p0-----3----3----0-2-p0-------0----0---------------0-3-2--------|
E|--------------3~-----------------------3-------------------------3~-----------0-3-0-3----------3----|


verse once again  (1.49:  Hey and I met a lot of great people…)

and bridge

and verse (2.29  Pack up the suitcase I gotta go…)
the song is pretty much the same until the solo where you play over

AMaj       GMaj      Dm-sus    FMaj

and finish playing all the same riffs from above.

This was my first tab so I'm unsure about how to suggest rhythm using tab, but if you listen to the song you will get it.  Good luck.

| /  slide up
|   slide down
| h  hammer-on
| p  pull-off
| ~  vibrato
| +  harmonic
| x  Mute note
===============================================================================
Comments