Travail - Return Chords & Tabs

 

Return Chords & Tabs

Travail Chords & Tabs

Version: 2 Type: Tab 0 ratings
1 star 2 stars 3 stars 4 stars 5 stars
comments

Return Tab

	Return   	-Travail

tuning:
Dropped A on seven string guitar


E--------------------------------------|  |---------------------------------|  |--------------------------------|
B--------------------------------------|  |---------------------------------|  |--------------------------------|
G--|3\2/3\2-2--3\2/2\2-2--3\2-2|-------|  |-------------------------4------3|  |--------------------------------|
D--|2\1/2\1-1--2\1/3\1-1--2\1-1|4X-----|  |-------------------------3------2|  |--------|5/9--9--10\8--8|-------|
A--------------------------------------|  |2p1--2p1--2p1|--------3--2---2--1|3X|--------|x-x--x---x-x--x|-10X---|
E--------------------------------------|  |2p1--2p1--2p1|4X------2--2---1--1|  |--------|3/7--7---8\6--6|-------|
A--------------------------------------|  |2p1--2p1--2p1|--------2--2---1--1|  |--------------------------------|
			Just like the Jedi knight.........   ain't playin    it's all gonna blow up.....
[ Tab from: http://www.guitartabs.cc/tabs/t/travail/return_tab_ver_2.html ]
E----------------------------------------------------------------------------------------------------------|
B----------------------------------------------------------------------------------------------------------|
G----------------------------------------------------------------------------------------------------------|
D----------------------------------------------------------------------------------------------------------|
A---|3-2--3-2--3-2--3-2|----------|3p2-2--1/2-2--3p2-2--1/2-2|---------------------------------------------|
E---|3-2--3-2--3-2--3-2|2x--------|3p2-2--1/2-2--3p2-2--1/2-2|-4x-then palm muted--------------------------|
A---|3-2--3-2--3-2--3-2|----------|3p2-2--1/2-2--3p2-2--1/2-2|---------------------------------------------|
arisen in me......               a missing piece

/ - slide up
\ - slide down
p - pull off
x - mute string


That's about it.  There's alot of repeated stuff, but it's easy to figure out.  Peace out.
Comments