Travail - Beaten Chords & Tabs

 

Beaten Chords & Tabs

Travail Chords & Tabs

Version: 1 Type: Tab 0 ratings
1 star 2 stars 3 stars 4 stars 5 stars
comments

Beaten Tab

Song:  Beaten		
Artist:  Travail

tuning:
dropped A on seven string guitar

E----------------------------------------------------------------|
B----------------------------------------------------------------|
G----------------------------------------------------------------|
D-|7/10---10---10----9---9---9-----5---5---2---2/7-7-----7----|--|2X
A-|-----0----0---0-----0---0--0------0---0---0-------0-0---0-0|--|
E----------------------------------------------------------------|
A----------------------------------------------------------------|
			RIFF 1

E-------------------------------------------------------------------|
B-------------------------------------------------------------------|
G-------------------------------------------------------------------|
D--7/10--10--12-10-9---9---9---9/12---12----9---9/10-10------10-----|  then riff 1 again
A-------0---0--------0---0---0------0-----0---0----------0-0-----0-0|
E-------------------------------------------------------------------|
A-------------------------------------------------------------------|

E------------------------|-----------------------------------------------------------|
B------------------------|-----------------------------------------------------------|
G------------------------|-----------------------------------------------------------|
D------------------------|-----------------------------------------------------------|
A--0--00--12h13p12--0-0-0|-0--00--12h13p12--0-0-0--2-3----0--00--12h13p12--0-0-0--3-2|
E--0--00--12h13p12--0-0-0|-0--00--12h13p12--0-0-0--2-3----0--00--12h13p12--0-0-0--3-2|
A--0--00--12h13p12--0-0-0|-0--00--12h13p12--0-0-0--2-3----0--00--12h13p12--0-0-0--3-2|
[ Tab from: http://www.guitartabs.cc/tabs/t/travail/beaten_tab.html ]
E---------------------------------------|-------------------------------------------------------------|
B---------------------------------------|-------------------------------------------------------------|
G---------------------------------------|-------------------------------------------------------------|
D-----------------------5-5-5-5--7-7-7-7|-------------------------------------------------------------|
A---3-3-3-3---2-2-2-2---5-5-5-5--7-7-7-7|---0--00--12h13p12--0-0-0--8-7----0--00--12h13p12--0-0-0--7-8|
E---3-3-3-3---2-2-2-2---3-3-3-3--5-5-5-5|---0--00--12h13p12--0-0-0--8-7----0--00--12h13p12--0-0-0--7-8|
A---3-3-3-3---2-2-2-2-------------------|---0--00--12h13p12--0-0-0--8-7----0--00--12h13p12--0-0-0--7-8|
	do this a few times           then

E----------------------------------------------------------------------------------------------------
B----------------------------------------------------------------------------------------------------
G----------------------------------------------------------------------------------------------------
D--7/10---10---12-10-9---9---9---12---12---14-12-10---10---10----10---10---10----9---9---9----5---5--
A-------0----0---------0---0---0----0----0----------0----0----0-----0----0----0----0---0---0----0---0
E----------------------------------------------------------------------------------------------------
A----------------------------------------------------------------------------------------------------

E---------------------|
B---------------------|
G---------------------|
D--2---2/7-7-----7----|
A----0-------0-0---0-0|
E---------------------|
A---------------------|


/ - slide up
h - hammer
p - pull

This is a good one.  Have fun with it.
Comments