Trash - Lipton Chords & Tabs

 

Lipton Chords & Tabs

Trash Chords & Tabs

Version: 1 Type: Tab 0 ratings
1 star 2 stars 3 stars 4 stars 5 stars
comments

Lipton Tab

title:LIPTON
wrote by:TRASH     (from cincy)
tabbed by a fan:Frank Collins

(*) -means to strum the chord 1 or 2 times back and forth.

Verse

---------------------------------------------------------------------------
------------------------------------------------------------------------------         (NOTE):  7chord is strumed longer that the others!!
---------------------------------------------------------------------------                          5
------------5---*---------------------7----*-------------------------------------        Repeat this 4 times
---5-*-----3-------------5---*----- 5----------------------------------     
---3----------------------3------------------------------------------
[ Tab from: http://www.guitartabs.cc/tabs/t/trash/lipton_tab.html ]
Chorus
---------------------------------------------------------------------
--------------------------------------------------------------------
-----------------------------------------------------------------------                 Repeat this 5 times
-------------------5------------------------------------------------------   Strum this up and down once per chord  
---2------5------3-----5------------------------------------------
---0------3------------3---------------------------------------------



         I know these tabs are right bacause i had a chance to meet the band backstage once so have fun with this song!!!
                                                  It's a pretty fast song so keep the tempo up! !
Comments