Trapt - When All Is Said And Done Chords & Tabs

 

When All Is Said And Done Chords & Tabs

Trapt Chords & Tabs

Version: 4 Type: Tab 0 ratings
1 star 2 stars 3 stars 4 stars 5 stars
comments

When All Is Said And Done Tab

Tabbed by:Sam Antezana
E-mail:dragonov@earthlink.net


Trapt

When All Is Said and Done




E-------------------------|
B-------------------------|
G-------------------------|
D---11---11---11---11-----|
A---9----9----9----9------|
E---7----7----7----7------|


E-------------------------------------|
B-------------------------------------|
G-------------------------------------|
D---------------------------------6---|  X2
A---5-5---5-5--5-7---2-2---2-2--2-4---|
E---3-3---3-3--3-5---0-0---0-0--0-----|



E-------------------------------------------|
B-------------------------------------------|
G-------------------------------------------|
D---11---11---11---11---11---11---11---11---|
A---9----9----9----9----9----9----9----9----|
E---7----7----7----7----7----7----7----7----|



E-------------------------------------|
B-------------------------------------|
G-------------------------------------|
D---------------------------------6---| 
A---5-5---5-5--5-7---2-2---2-2--2-4---|
E---3-3---3-3--3-5---0-0---0-0--0-----|



E-------------------------------------------|
B-------------------------------------------|
G-------------------------------------------|
D---11---11---11---11---11---11---11---11---|
A---9----9----9----9----9----9----9----9----|
E---7----7----7----7----7----7----7----7----|



E-------------------------------------|
B-------------------------------------|
G-------------------------------------|
D---------------------------------6---| 
A---5-5---5-5--5-7---2-2---2-2--2-4---|
E---3-3---3-3--3-5---0-0---0-0--0-----|



E------------------5-----3-------|
B--------------------5-----3-----|
G----------------------------4---|
D---9-99-9---9---7-----5---------|  X4
A---9-99-9---9---7-----5---------|
E---7-77-7---7---5-----3---------|



E-----------------------------------------------|
B-----------------------------------------------|
G---4-44-4---4---7-77-7---7----------------------|
D---4-44-4---4---7-77-7---7---5-55-5---5---2----|  X2
A---2-22-2---2---5-55-5---5---5-55-5---5---2----|
E---2-22-2---2---5-55-5---5---3-33-3---3---0----|



E---------------------|
B---------------------|
G---------------7-----|
D-----------7-----7---|  X2
A-------7-----7-------|
E---7-7---7-----------|



E-------------------------------------|
B-------------------------------------|
G-------------------------------------|
D---------------------------------6---|  X2
A---5-5---5-5--5-7---2-2---2-2--2-4---|
E---3-3---3-3--3-5---0-0---0-0--0-----|



E-------------------------------------------|
B-------------------------------------------|
G-------------------------------------------|
D---11---11---11---11---11---11---11---11---|
A---9----9----9----9----9----9----9----9----|
E---7----7----7----7----7----7----7----7----|

[ Tab from: http://www.guitartabs.cc/tabs/t/trapt/when_all_is_said_and_done_tab_ver_4.html ]
E-------------------------------------|
B-------------------------------------|
G-------------------------------------|
D---------------------------------6---| 
A---5-5---5-5--5-7---2-2---2-2--2-4---|
E---3-3---3-3--3-5---0-0---0-0--0-----|



E-------------------------------------------|
B-------------------------------------------|
G-------------------------------------------|
D---11---11---11---11---11---11---11---11---|
A---9----9----9----9----9----9----9----9----|
E---7----7----7----7----7----7----7----7----|



E-------------------------------------|
B-------------------------------------|
G-------------------------------------|
D---------------------------------6---| 
A---5-5---5-5--5-7---2-2---2-2--2-4---|
E---3-3---3-3--3-5---0-0---0-0--0-----|



E------------------5-----3-------|
B--------------------5-----3-----|
G----------------------------4---|
D---9-99-9---9---7-----5---------|  X4
A---9-99-9---9---7-----5---------|
E---7-77-7---7---5-----3---------|



E-----------------------------------------------|
B-----------------------------------------------|
G---4-44-4---4---7-77-7---7---------------------|
D---4-44-4---4---7-77-7---7---5-55-5---5---2----|  X4
A---2-22-2---2---5-55-5---5---5-55-5---5---2----|
E---2-22-2---2---5-55-5---5---3-33-3---3---0----|


guitar 2
E--------------|
B---10-8-7-8---|
G--------------|
D--------------|  X2
A--------------|
E--------------|




E----------------------------------------------------------|
B----------------------------------------------------------|
G----------------------------------------------------------|
D-------11-----11-----7-----7-----11-----11-----7------7---|  X
A-----9------9------5-----5-----9------9------5-------5----|
E---7------7------3-----3-----7------7------3--------3-----|



E-------------|
B-------------|
G---6h7-6-----|
D---------7---|
A-------------|
E-------------|



E-------------------------|
B-------------------------|
G-------------------------|
D---11---11---11---11-----|
A---9----9----9----9------|
E---7----7----7----7------|



E------------------5-----3-------|
B--------------------5-----3-----|
G----------------------------4---|
D---9-99-9---9---7-----5---------|  X4
A---9-99-9---9---7-----5---------|
E---7-77-7---7---5-----3---------|



E-----------------------------------------------|
B-----------------------------------------------|
G---4-44-4---4---7-77-7---7---------------------|
D---4-44-4---4---7-77-7---7---5-55-5---5---2----|  X4
A---2-22-2---2---5-55-5---5---5-55-5---5---2----|
E---2-22-2---2---5-55-5---5---3-33-3---3---0----|



E---------------------------------------------|
B---------------------------------------------|
G---------------------------------------------|
D---11---11---11---11---11---11---11---11-11--|
A---9----9----9----9----9----9----9----9--9---|
E---7----7----7----7----7----7----7----7--7---|
Comments