Trapt - When All Is Said And Done Chords & Tabs

 

When All Is Said And Done Chords & Tabs

Trapt Chords & Tabs

Version: 1 Type: Bass Tab

When All Is Said And Done Bass Tab

Intro (Bass begins at 0:04)
G|---------------------------------------------------------------:
D|---------------------------------------------------------------:
A|---------------------------------------------------------------:
E|-5-5-5-5--5-------------------------------------------------:
B|----------------888888h10/55-55-5-5h7-----------------------:

G|---------------------------------------------------------------:
D|---------------------------------------------------------------:
A|---------------------------------------------------------------:
E|---------------------------------------------------------------:
B|--888888h10/55-55-5-5h7-------------------------------------:


Verse/Pre-Chorus (00:15)

G|---------------------------------------------------------------:
D|---------------------------------------------------------------:
A|---------------------------------------------------------------:  X2
E|--5-5-5--5-5--5-5--5---------------------------------------:
B|------------------------888888h10/55-55-5-5h7---------------:

G|---------------------------------------------------------------:
D|---------------------------------------------------------------:
A|---------------------------------------------------------------:  x4
E|---7-77-7-5-5/3-33--------------------------------------------:
B|---------------------------------------------------------------:


Chorus (00:49)
G|---------------------------------------------------------------:
D|---------------------------------------------------------------:
A|---------------------------------------------------------------:  X2
E|--7-7-7-10-10-10--------------------------------------------:
B|--------------------88-8-5------7~---------------------------:


Verse (1:19)
G|---------------------------------------------------------------:
D|---------------------------------------------------------------:
A|---------------------------------------------------------------:
E|---------------------------------------------------------------:
B|--888888h10/55-55-5-5h7-------------------------------------:

G|---------------------------------------------------------------:
D|---------------------------------------------------------------:
A|---------------------------------------------------------------:
E|---------------------------------------------------------------:
B|--888888h10/55-55-5-5h7-------------------------------------:


Verse/Pre-Chorus (1:36)
[ Tab from: http://www.guitartabs.cc/tabs/t/trapt/when_all_is_said_and_done_btab.html ]
G|---------------------------------------------------------------:
D|---------------------------------------------------------------:
A|---------------------------------------------------------------:  X2
E|--5-5-5--5-5--5-5--5---------------------------------------:
B|------------------------888888h10/55-55-5-5h7---------------:

G|---------------------------------------------------------------:
D|---------------------------------------------------------------:
A|---------------------------------------------------------------:  x4
E|---7-77-7-5-5/3-33--------------------------------------------:
B|---------------------------------------------------------------:


Chorus (1:53)

G|---------------------------------------------------------------:
D|---------------------------------------------------------------:
A|---------------------------------------------------------------:  X4
E|--7-7-7-10-10-10--------------------------------------------:
B|--------------------88-8-5~----------------------------------:


Bridge (2:26)

G|---------------------------------------------------------------:
D|---------------------------------------------------------------:
A|---------------------------------------------------------------:  X6
E|---7-7---------------------------------------------------------:
B|--------8-8----------------------------------------------------:


Pre-Chorus (2:52)

G|---------------------------------------------------------------:
D|---------------------------------------------------------------:
A|---------------------------------------------------------------:
E|--5-5-5--5--------------------------------------------------:
B|---------------------------------------------------------------:

G|---------------------------------------------------------------:
D|---------------------------------------------------------------:
A|---------------------------------------------------------------:  x4
E|---7-77-7-5-5/3-33--------------------------------------------:
B|---------------------------------------------------------------:


Chorus (3:11)

G|---------------------------------------------------------------:
D|---------------------------------------------------------------:
A|---------------------------------------------------------------:  X4
E|--7-7-7-10-10-10--------------------------------------------:
B|--------------------88-8-5~----------------------------------:


Outro (3:45)

G|---------------------------------------------------------------:
D|---------------------------------------------------------------:
A|---------------------------------------------------------------:
E|--5-5-5-5-5-5-5-55~--------------------------------------------:
B|---------------------------------------------------------------: