Trapt - Waiting Chords & Tabs

 

Waiting Chords & Tabs

Trapt Chords & Tabs

Version: 2 Type: Tab

Waiting Tab

   
tuning-drop d

e---------------------------------------------------------------------------|
b---------------------------------------------------------------------------|
g---------------------------------------------------------------------------|
d-9-9---9--9----9--9---9999----6--6----6--6-----4--4----4444----------------|
a-7-7---7--7----7--7---7777----4--4----4--4-----2--2----2222----------------|
d-7-7---7--7----7--7---7777----4--4----4--4-----2--2----2222----------------|

repeat riff twice and you'll use the riff for the three pre-chourses going into the chourse



verse

e---------------------------------------------------------------------------|
b---------------------------------------------------------------------------|
g-----9--------8--------6---------------------------------------------------|
d--9-------9--------9-------9-----------------------------------------------|
a---------------------------------------------------------------------------|
d---------------------------------------------------------------------------|

repeat that for about six times for the first and second verses and it tweeks up abit
here's the tweek up:

e---------------------------------------------------------------------------|
b---------------------------------------------------------------------------|
g------6--------------8--------9--------------------------------------------|
d---9-------99---9--------9-------------------------------------------------|
a---------------------------------------------------------------------------|
d---------------------------------------------------------------------------|

  ^thats the tweek up during the first and second verses of the song
after that then you repeat the intro riff for the first pre-chourse then it leads to the chourse.

e---------------------------------------------------------------------------|
b---9----9----9----9-----9-----9-----9------9-------------------------------|
g-9----9----9----9-----9-----9-----9-----9----------------------------------|
d---------------------------------------------------------------------------|
a---------------------------------------------------------------------------|
d---------------------------------------------------------------------------|

e---------------------------------------------------------------------------|
b---8----8----8-----8------8------8-----8----8------------------------------|
g-9----9----9----9------9------9------9----9--------------------------------|
d---------------------------------------------------------------------------|
a---------------------------------------------------------------------------|
d---------------------------------------------------------------------------|
[ Tab from: http://www.guitartabs.cc/tabs/t/trapt/waiting_tab_ver_2.html ]
e---------------------------------------------------------------------------|
b---6----6-----6-----6------6------6------6-------6-------------------------|
g-9---9-----9-----9------9------9-------9-------9---------------------------|
d---------------------------------------------------------------------------|
a---------------------------------------------------------------------------|
d---------------------------------------------------------------------------|

e---------------------------------------------------------------------------|
b---4-----4------4------4-/-----11-----11-----11----11----------------------|
g-6----6-------6-------6-/----13-----13-----13-----13-----------------------|
d---------------------------------------------------------------------------|
a---------------------------------------------------------------------------|
d---------------------------------------------------------------------------|

^ basicly thats the riff that you play during the chourses of the song so the first,
second, and third up to the ending of the song that's the part you play. now the the for
the bridge it's sort of the same thing going on in the first and second verses but it's 
tweeked up again.

bridge

e---------------------------------------------------------------------------|
b---9-----8-----6---------------6--------------6----------------------------|
g-9-----9-----9----9---9---9-------9-----9--------9-------------------------|
d---------------------------------------------------------------------------|
a---------------------------------------------------------------------------|
d---------------------------------------------------------------------------|

^ that part repeats for about four times then it gets to this part during the bridge:

e---------------------------------------------------------------------------|
b---------------------------------------------------------------------------|
g----------------------------10-10-10-10------------------------------------|
d--9-9-9--9----9--9---9--9---9--9--9--9-------------------------------------|
a---------------------------------------------------------------------------|
d---------------------------------------------------------------------------|

 ^ those two parts is pretty much the bridge and after the bridge is the inro riff
that's again used for the pre-chourses going into the chourse and after the chourse you do
the part thats played in the chourse when chris sings "because i've been fooled by the 
illusions in my head". that part is repeated like three times then it's back to the intro
riff and while that riff is going there's a lead part going along with that riff with 
the wah peadal.

e---------------------------------------------------------------------------|
b-999999999999999999999999 7777777777777777777777777777---------------------|
g---------------------------------------------------------------------------|
d---------------------------------------------------------------------------|
a---------------------------------------------------------------------------|
d---------------------------------------------------------------------------|
 ^ thats the lead part going along with the intro riff and to come and think of it. that
part is also played in the intro twice along with the riff but when trapt plays it live
they just do the intro riff. other that that that's the whole song go ahead and leave 
some comments if you want and if you have any questions on some of the parts then i'll be
happy to answer them.