Trapt - Victim Chords & Tabs

 

Victim Chords & Tabs

Trapt Chords & Tabs

Version: 1 Type: Tab

Victim Tab

Trapt
Victim
Tuning EADgbe

From Someone in Control.

Intro/Verse
Guitar One
----------------------|
----5---5---5---5-----|
--6---6---6---6---6---|
4---------------------|
----------------------|
----------------------|

Guitar Two
----------------------|
---77--99---10--------|
6---------------------|
----------------------|
----------------------|
----------------------|

----------------------|
---77--99---10--0-----|
6---------------------|
----------------------|
----------------------|
----------------------|

Prechorus
Guitar One
--------------------------------------------------------------|
--------------------------------------------------------------|
--------------------------------------------------------------|
4-4-4-4-----4-4-4-4-4---4-----4-4-4-4----4-4-4-4-4---4--------|
4-4-4-4-----4-4-4-4-4---4-----4-4-4-4----4-4-4-4-4---4--------|
4-4-4-4-----4-4-4-4-4---4-----4-4-4-4----4-4-4-4-4---4--------|

Guitar Two
play this second time through here
(---7-7-7-7-7-7-7-7-9-9-9-9-9-9-9-9-) on the b string

Chorus
Both Guitars
---------------------------------------------|
---------------------------------------------|
---------------------------------------------|
4-4-4-4----2-2---7-7----9-9-9-9-9/2-2-2-2----|
4-4-4-4----2-2---7-7----9-9-9-9-9/2-2-2-2----|
4-4-4-4----2-2---7-7----9-9-9-9-9/2-2-2-2----|


Fill after chorus two
-------------------|
-------------------|
4-4-4-4-4-4-4-4----|
4-4-4-4-4-4-4-4----|
4-4-4-4-4-4-4-4----|
p.m.
[ Tab from: http://www.guitartabs.cc/tabs/t/trapt/victim_tab.html ]
Interlude Part One
Guitar one - No Guitar Two
-----------------------------------------------------------|
-----------------------------------------------------------|
--------------6-6-6-6-6-6------------------6-6-6-6-8-9-----|
4-4-4-4-4-4-4--------------4-4-4-4-4-4-4-4-----------------|
-----------------------------------------------------------|
-----------------------------------------------------------|

Interlude Part Two
Guitar Two - No Guitar One
----------------------------------------------------|
12-12-12-12-12--10-10-10-10-10--9-9-9--5-5-5--------|
----------------------------------------------------|
----------------------------------------------------|
----------------------------------------------------|
----------------------------------------------------|

----------------------------------------------------|
12-12-12-12-12--10-10-10-10-10--9-9-9--7-7-7--------|
----------------------------------------------------|
----------------------------------------------------|
----------------------------------------------------|
----------------------------------------------------|
4x clean/ 2x Dist

Interlude Part Three
-Guitar one plays prechorus
-Guitar two plays interlude part two

Final Chorus Part 1
-Both guitars play normal

Final Chorus Part 2
-Guitar one plays the same

Guitar two does this little solo thing on the B and E strings
B-------------------------------------------------------- \
E-12-12-12-12-12--10-10-10-10--14-14-14-99-9-9-9------ -- \
                                                         > 2x
------------------------------------------------------ \  /
12-12-12-12-12--10-10-10-10-10--9-9-9--5-5-5---------- \ /

------------------------------------------------------|
12-12-12-12-12--10-10-10-10--14-14-14-99-9-9-9--------|

-------------------------------------9-12-9-----------|
12-12-12-12-12--10-10-10-10-10--9-12------------------|

14-14-14----------------------------------------------|
---------12-12--10-10-10-10--14-14-14-99-9-9-9--------|

---------------------------------------------|
12-12-12-12-12--10-10-10-10-10--9-9-9--5-5-5-|