Trapt - These Walls Chords & Tabs

 

These Walls Chords & Tabs

Trapt Chords & Tabs

Version: 2 Type: Tab 0 ratings
1 star 2 stars 3 stars 4 stars 5 stars
comments

These Walls Tab

trapt
these walls

* = natural harmonic  /,\ = slide 
x or pm = palm mute  ~~= hold note or vibrato (in some cases)

intro: guitar 1

E|--------------0---------------------
B|-----------0-----0------------------
G|--------1-----------1---------------
D|-----2-----------------2------------
A|--2-----------------------2---------   repeat (dpm't always add the (0)!!)
E|-----------------------------0------

guitar 2: intro

E|--7*---12*---5*--
B|-----------------
G|-----------------  just mess around with those notes and u got it
D|-----------------
A|-----------------
E|-----------------

chorus:

E|---------------------------------------------------------------
B|---------------------------------------------------------------
G|---------------------------------------------------------------
D|--6-6-6---2-2-2---4-4-4-4--6-6-6-6--2-2--4-4-4--2-2-2--4-4-----
A|--4-4-4---0-0-0---2-2-2-2--4-4-4-4--0-0--2-2-2--0-0-0--2-2-----
E|---------------------------------------------------------------
i dont think i put the in the ECACT order. but, anyway its the chords
played at those spots. you might have to switch it around a little bit.


after first chorus: (this just from the other tab on here)
[ Tab from: http://www.guitartabs.cc/tabs/t/trapt/these_walls_tab_ver_2.html ]
E|--7~~-----------------------------------7----------------9~~-------9~~--
B|--------7--5--4~~--7--9--------------------7--5--4--7/9-------7/9-------
G|-------------------------8--6--8--6--4----------------------------------
D|------------------------------------------------------------------------
A|------------------------------------------------------------------------
E|------------------------------------------------------------------------

then the CHORUS again:

E|---------------------------------------------------------------
B|---------------------------------------------------------------  the order is
G|---------------------------------------------------------------  screwed up
D|--6-6-6---2-2-2---4-4-4-4--6-6-6-6--2-2--4-4-4--2-2-2--4-4-----  again
A|--4-4-4---0-0-0---2-2-2-2--4-4-4-4--0-0--2-2-2--0-0-0--2-2-----
E|---------------------------------------------------------------

then the 2nd part:

E|----------------------------------------
B|----------------------------------------
G|----------------------------------------  order is screwed up again
D|--6-6-6--2-2-2-2--2-2-2-2--2-2-2-2-2----
A|--4-4-4--0-0-0-0--2-2-2-2--2-2-2-2-2----
E|------------------0-0-0-0--2-2-2-2-2----

i think the bridge is the same as the intro or the chorus.

outro:

E|----------------------------------------
B|----------------------------------------
G|----------------------------------------                          
D|--6-6-6--2-2-2-2--2-2-2-2--2-2-2-2-2----
A|--4-4-4--0-0-0-0--2-2-2-2--2-2-2-2-2----
E|------------------0-0-0-0--2-2-2-2-2----
Comments