Trapt - The Game Chords & Tabs

 

The Game Chords & Tabs

Trapt Chords & Tabs

Version: 1 Type: Tab 0 ratings
1 star 2 stars 3 stars 4 stars 5 stars
comments

The Game Tab

   
this is my second tab I ever made and I have the song book so this should be perfect and 
I do make any mistakes e-mail at skateboy0404@verizon.net
im only 12 but im pretty good


ALL 6 STRING GUITARS TUNED TO 6E  5A  4D  3G  2B  1E

key
P=pull off
h=Hammer on
~=vibrato
s=slide
b=bend
                          THE GAME
                   Elec. Gtr. 2 clean tone
--------------------------------------------------------------------|
--------------------------------------------------------------------|
--------------------------------------------------------------------|
--------------------------------------------------------------------|
--------------------------------------------------------------------|
-7--7-7--7-7--7-7--7-7--7-7---7-7--7-7--7---------------------------|
                                                                       2x

--------------------------------------------------------------------|
--------------------------------------------------------------------|
--------------------------------------------------------------------|
--------------------------------------------------------------------|
--------------------------------------------------------------------|
-7--h5--5-5--5-5--5--h10-10-10--10-10--10---------------------------|

--------------------------------------------------------------------|
--------------------------------------------------------------------|
--------------------------------------------------------------------|
--------------------------------------------------------------------|
--------------------------------------------------------------------|
10-p7----7-7----7-7----7-7----7-7-h9-9-9--5-h7-----------5----------|

       Gtr. 1  clean tone

--------------------------------------5-----------------------------|
--3-2-0-----3-2-0------3-2-0-3-5-3-2----3---------------------------|
------------------------------------------4-------------------------|
--------------------------------------------------------------------|
--------------------------------------------------------------------|
--------------------------------------------------------------------|

                   Elec. Gtr. 2 clean tone
--------------------------------------------------------------------|
--------------------------------------------------------------------|
--------------------------------------------------------------------|
--------------------------------------------------------------------|
--------------------------------------------------------------------|
-7--7-7--7-7--7-7--7-7--7-7---7-7--7-7--7---------------------------|
                                                                       2x

--------------------------------------------------------------------|
--------------------------------------------------------------------|
--------------------------------------------------------------------|
--------------------------------------------------------------------|
--------------------------------------------------------------------|
-5--5--5-5--5-5--5--5-5--5-5--5-5--5-5--5---------------------------|

       Gtr. 1  clean tone
[ Tab from: http://www.guitartabs.cc/tabs/t/trapt/the_game_tab.html ]
--------------------------------------5-----------------------------|
--3-2-0-----3-2-0------3-2-0-3-5-3-2----3---------------------------|
------------------------------------------4-------------------------|
--------------------------------------------------------------------|
--------------------------------------------------------------------|
--------------------------------------------------------------------|

hold__________________

---------------------------------------------------------------------|
---------------------------------------------------------------------|
---------------------------------------------------------------------|
------------5--5-5--5---------7-7--7---7-s9-9-9---9------------------|
---------------------------------------------------------------------|
-3--3-3--3--------------3-h5-----------5-s7-7-7---7------------------|


--------------------------------------------------------------------|
--------------------------------------------------------------------|
--------------------------------------------------------------------|
-7------------------7---------xxxxxxxxxxxx----7-----------9-9-------|
-7------------------7---------xxxxxxxxxxxx----7----------9----------|
-9------------------9---------xxxxxxxxxxxx----9---------7-----------|


--------------------------------------------------------------------------|
--------------------------------------------------------------------------|
-14-h16-16-16-16-16-16-19-19-19-18-18-18-14-14-14-9-9-9-11-11-11-11-11-11-|
--------------------------------------------------------------------------| 2x
--------------------------------------------------------------------------|
--------------------------------------------------------------------------|


--------------------------------------------------------------------|
-------12b----------------------------------------------------------|
--------------------------------------------------------------------|
--------------------------------------------------------------------|
--------------------------------------------------------------------|
--------------------------------------------------------------------|


--------------------------------------------------------------------|
--------------------------------------------------------------------|
--------------------------------------------------------------------|
--------------------------------------------------------------------|
-2---2---2----------------------------------------------------------|
---0---0---0--------------------------------------------------------|


--------------------------------------------------------------------|
--------------------------------------------------------------------|
--------------------------------------------------------------------|
-11s---99---99xxxx----11s---99xxxx--11s---99xxxx--------------------|    2x
-11s---99---99xxxx----11s---99xxxx--11s---99xxxx--------------------|
-9-s---77---77xxxx----9-s---77xxxx--9-s---77xxxx--------------------|

all done its perfect  I check it and tried it its done and just in case if i did mess up 
me at skateboy0404@verizon.net

                       good luck
Comments