Trapt - The Game Chords & Tabs

 

The Game Chords & Tabs

Trapt Chords & Tabs

Version: 1 Type: Bass Tab 0 ratings
1 star 2 stars 3 stars 4 stars 5 stars
comments

The Game Bass Tab

Intro/Verse
G|------------------------------------|----|----------------
D|------4-----5-4-2------4-----4-7-0--|----|------5------9--
A|--222---222--------000---000--------|-x2-|---------000----
E|------------------------------------|----|--333-----------

Bridge 1:
G|----------------------------------------------------------------------
D|----------------------------------------------------------------------
A|----------------------------------------------//12--------------//12--
E|--00--00--33--33--00--00--33--33--00xx00xx3333------00xx00xx3333------
[ Tab from: http://www.guitartabs.cc/tabs/t/trapt/the_game_btab.html ]
Chorus:
G|----------------------
D|----------------------
A|--22222222------------
E|-----------0000-3333--

Bridge 2:
G|----------4-22222-------------------
D|------4-----------55555-4444h5p4-2--
A|--222---2---------------------------
E|------------------------------------

Bridge 3:
G|--------------------------------------
D|--------------------------------------
A|--------------//12--------------//12--
E|--00--00--33--------00--00--33--------

Outro:
G|--------------------------|--------------|----------------------------
D|--------------------------|--------------|----------------------------
A|--2222--2222--2222--2222--|--2~~0~~------|--2222--2222--2222--2222x2~~
E|--------------------------|--------0~~3~~|----------------------------
Comments