Trapt - Stillframe Chords & Tabs

 

Stillframe Chords & Tabs

Trapt Chords & Tabs

Version: 1 Type: Bass Tab 0 ratings
1 star 2 stars 3 stars 4 stars 5 stars
comments

Stillframe Bass Tab

   
Tuning: eadg

INTRO
G|---------------------|
D|---------------------|REPEAT AS MANY TIMES AS NEEDED
A|-2p0-2p0-2-0h2-0h2-2-|
E|---------------------|

chorus
G|---------------------------|
D|---------------------------|repeat as many times as needed then...
A|--9-9-7-9---7-9-9--9-9-7-9-|
E|----------10---------------|

G|---------|-----|
D|---------|---2-|
A|-9--7----|-2---|repeat last part as many times as needed
E|------11-|-----|
[ Tab from: http://www.guitartabs.cc/tabs/t/trapt/stillframe_btab.html ]
use this part at the end of chorus one for chorus 2
G|---------|-----|
D|---4---4-|---2-|
A|-2---2---|-2---|
E|---------|-----|
VERSE
G|---------------------------------------------|
D|---------------------------------------------|
A|--99--99-9-77--77-7------------------77--77-7| 
E|--------------------10-10--10-10--10---------|

Mellower part
G|-/16-------/16------/16---------------|
D|--------------------------------------|repeat as many times as needed
A|-----14-14-----12-12----10-10--12--12-|
E|--------------------------------------|

Outro
G|-11-9------|
D|------11-9-|
A|-----------|
E|-----------|

SONG ORDER:
INTRO
CHORUS
VERSE
CHORUS
VERSE
CHORUS
MELLOW PART
VERSE
CHORUS 2
OUTRO
Comments