Trapt - Stand Up Chords & Tabs

 

Stand Up Chords & Tabs

Trapt Chords & Tabs

Version: 2 Type: Tab

Stand Up Tab

ok it is really pathetic seeing people say u need a seven-string guitar to play this I 
thinking about this today all u actually need to do is tune it as a drop c (C,G,C,F,A,D)

Intro 4x
|-----------------------|
|-----------------------|
|-----------------------|
|-2-0-2-0-2-0-0-0-0-0---|
|-2-0-2-0-2-0-0-0-0-0---|
|-2-0-2-0-2-0-0-0-0-0---|

verse
|-----------------|--|
|--------------------|                                                    /
|--------------------|                                                   /
|--------4-4-4-4-----|
|--2~----------------|
|--------------------|
                                                                             4x
|-----------------------------------------------------|
|-----------------------------------------------------|
|-----------------------------------------------------|
|--7--7--7--7--7--7--4-4-4-4--------------------------|
|-----------------------------------------------------|
|------------------------------|----------------------|

|-----------------|
|-----------------|
|-----------------|
|--------4-4-4-4--|
|--2~-------------|
|-----------------|

|--------------------------------|
|--------------------------------|
|--------------------------------|
|--7--7--7--7--7--7--4-4-4-4-----|
|--------------------------------|
|--------------------------------|

Chorus
|--------------------------|
|--------------------------|
|--------------------------|   4x
|-2-0-2-0-2-0-0-0-0-0------|  /
|-2-0-2-0-2-0-0-0-0-0------| /
|-2-0-2-0-2-0-0-0-0-0------|

|------------------------------------|
|------------------------------------|
|------------------------------------|
|-2-2-2--5-5-5-5--5-5-5-5--0-0-0-0---|
|-2-2-2--3-3-3-3--5-5-5-5--0-0-0-0---|
|-2-2-2-----------5-5-5-5--0-0-0-0---|

|-----------------------------|
|-----------------------------|
|-----------------------9-----|
|-2-2-2--5-5-5-5--7-7--7--7---|
|-2-2-2--3-3-3-3--5-5-----7---|
|-2-2-2--------------------7--|

bridge
[ Tab from: http://www.guitartabs.cc/tabs/t/trapt/stand_up_tab_ver_2.html ]
|--------------------------------------------------------------------------------|
|--------------------------------------------------------------------------------|
|--------------------------------------------------------------------------------|
|-------------------------------------4-4-4-4-7-7-7-7-7-7-7-7-7-7-7-7-7-7-7-7----|
|-2-2-2-2-2-2-2-2-2-2-2-2-2-2-2-2-2----------------------------------------------|
|--------------------------------------------------------------------------------|

|------------------------------------------------------------------------------------|
|------------------------------------------------------------------------------------|
|------------------------------------------------------------------------------------|
|--------------------------------------------------------------------4-4-4-4-4-4-4---|
|-2-2-2-2-2-2-2-2-2-2-2-2-2-2-2-2-2-2-2-2-2-2-2-2-2-2-2-2-2-2-2-2--------------------|
|------------------------------------------------------------------------------------|

|------------------------------------------------------------------------------------|
|------------------------------------------------------------------------------------|
|------------------------------------------------------------------------------------|
|-0-0-0-0-0-0-0-0-0-0-0-0-0-0-0-0-0-0-0-0-0-0-0-0-0-0-0-0-0-0-0-4-4-4-4-4-4-4-4------|
|------------------------------------------------------------------------------------|
|------------------------------------------------------------------------------------|

|-----------------------------------------------------------------------------------|
|-----------------------------------------------------------------------------------|
|-----------------------------------------------------------------------------------|
|-1-1-1-1-1-1-1-1-1-1-1-1-1-1-1-1-1-1-1-1-1-1-1-1-1-1-1-1-1-1-1-4-4-4-4-4-4-4-4-----|
|-----------------------------------------------------------------------------------|
|-----------------------------------------------------------------------------------|

|-5-5-5-5-5-5-5-5-5-5-5-5-5-5-5-5-5-5-5-5-5-5-5-5-5-5-5-5-5-5-5-5-----|
|---------------------------------------------------------------------|
|---------------------------------------------------------------------|
|---------------------------------------------------------------------|
|---------------------------------------------------------------------|
|---------------------------------------------------------------------|

intro
verse
chorus
verse
chorus
bridge
chorus