Trapt - Made Of Glass Chords & Tabs

 

Made Of Glass Chords & Tabs

Trapt Chords & Tabs

Version: 1 Type: Bass Tab 0 ratings
1 star 2 stars 3 stars 4 stars 5 stars
comments

Made Of Glass Bass Tab

   
Band- Trapt
Song- Made Of Glass

Intro
00:04
G|-------||
D|-5h7p5-||
A|-------||
E|0------||

Verse
00:05
G|------------------||
D|---60---50---6050-||
A|5h7--5h7--5h7-----||
E|------------------||
[ Tab from: http://www.guitartabs.cc/tabs/t/trapt/made_of_glass_btab.html ]
Chorus
00:28
G|---|-------------------||
D|---|-------------------||
A|---|-0--2--0--0--4--0--||
E|12/|-------------------||
pt.2 00:50
G|------------------||
D|------------------||
A|--1\----1\--------||
E|00----00---5-4-3--||

verse
chorus

Interlude
01:49
G|---------------------------||
D|---------------------------||
A|---------------1\---1\-----||
E|10-20-5-4-3--00---00-------||

I think that is pretty close.
Comments