Trapt - Headstrong Chords & Tabs

 

Headstrong Chords & Tabs

Trapt Chords & Tabs

Version: 7 Type: Tab 0 ratings
1 star 2 stars 3 stars 4 stars 5 stars
comments

Headstrong Tab

   
Tabbed by: bizziron
i tried playing a drop c tuning of this song and i didnt like it so i tried to
put in drop d i hope its all right. i give all the credit to the dude that tabbed
this first (llhlegend) i just changed his numbers.
questions or comments email me at byron_casebier@hotmail.com	
thanx,
bizziron

Tuning:DADGBE 

Intro w/distortion 
e|--------3-3--------3-3------------1-1---------1-1-------------------------|
b|--------------------------------------------------------------------------|
g|------------------------------------------------------0-------------------|
d|---3-3--------3-3------------1-1--------1-1---------1-0-------------------|
a|---3-3--------3-3------------1-1--------1-1---------1-0-------------------|
d|---3-3--------3-3------------1-1--------1-1---------1---------------------|


Rhythm Fig. 1 x2
e|--------3-3--------3-3-----------3----------1-1--------1-1----------------|
b|--------------------------------------------------------------------------|
g|----------------------------------------------------------------0---------|
d|---3-3---------3-3---------3-3---------1-1--------1-1---------1-0---------|
a|---3-3---------3-3---------3-3---------1-1--------1-1---------1-0---------|
d|---3-3---------3-3---------3-3---------1-1--------1-1---------1-----------|



Rhythm Fig. 2 clean tone x6
e|-------------------------8-8----------------------------------------------|
b|--8-8-8-8---8h99p8--8-----------6-6-6-6---6-6----------------------------|
g|---------------------------------------------------8-8-8--5---------------|
d|--------------------------------------------------------------------------|
a|--------------------------------------------------------------------------|
d|--------------------------------------------------------------------------|



Pre-chorus						w/distortion
e|--------------------------------------------------------------------------|
b|------8-8--------8-8-----------6-6--------6-6-----------------------------|
g|----8----------8-------------5----------5-------------0-------------------|
d|----------------------------------------------------1-0-------------------|
a|----------------------------------------------------1-0-------------------|
d|----------------------------------------------------1---------------------|



[ Tab from: http://www.guitartabs.cc/tabs/t/trapt/headstrong_tab_ver_7.html ]
Chorus 
e|--------3-3------------------------------------1-1------------6-6---------|
b|--------------------------------------------------------------------------|
g|-----------------------------------------------------------------------0--|
d|---3-3--------3-3-------------3-3---------1-1----------1-1-----------1-0--|
a|---3-3--------3-3---<3>-<3>---3-3---<3>---1-1----------1-1-----------1-0--|
d|---3-3--------3-3-------------3-3---------1-1----------1-1-----------1----|




Rhythm Fig. 4 (play each part twice)
e|--------------------------------------------------------------------------|
b|--------------------------------------------------------------------------|
g|---14--14-14-14-14--12--10--13--13-13-8--8-8-8-5--------------------------|
d|--------------------------------------------------------------------------|
a|---12--12-12-12-12--10--8---11--11-11-6--6-6-6-3--------------------------|
d|--------------------------------------------------------------------------|


						  end of Rhythm Fig. 4
e|--------------------------------------------------------------------------|
b|--------------------------------------------------------------------------|
g|---14--14-14-14-14--15--/17---13-13-8--8-8-8-5----------------------------|
d|--------------------------------------------------------------------------|
a|---12--12-12-12-12--13--/15---1111-6--6-6-6-3----------------------------|
d|--------------------------------------------------------------------------|

Rest of Song:
Play Rhythm Fig. 2 x6
Play Pre-chorus
Play Rhythm Fig. 1 x2
Play Rhythm Fig. 3 x2
Play Rhythm Fig. 4 


clean tone x3
e|--15-15-15-15-15h1616p1515p13-13-13---13-13-13-13-13h1515p13--13-13-13-|
b|--------------------------------------------------------------------------|
g|--------------------------------------------------------------------------|
d|--------------------------------------------------------------------------|
a|--------------------------------------------------------------------------|
d|--------------------------------------------------------------------------|


Play Pre-chorus
Play Rhythm Fig. 1 x2
Play Rhythm Fig. 3 x2
Play Rhythm Fig. 4
Play Rhythm Fig. 1 x1

Outro

e|---------3-3-----------------------------------13-13---------13-13--------|
b|-----------------------------------------------13-13---------13-13--------|   
g|--------------------------------------------------------------------------|
d|---3-3---------3-3----------3-3----------3-3------------3-3-----------3-0-|
a|---3-3---------3-3--<3><3>--3-3---<3>----3-3------------3-3-----------1-0-|
d|---3-3---------3-3----------3-3----------3-3------------3-3-----------1---|

| /  slide up
| \  slide down
| h  hammer-on
| p  pull-off
| <>  harmonic
=============================================================================
Comments