Trapt - Headstrong Chords & Tabs

 

Headstrong Chords & Tabs

Trapt Chords & Tabs

Version: 6 Type: Tab 0 ratings
1 star 2 stars 3 stars 4 stars 5 stars
comments

Headstrong Tab

   
Tabbed by: llhlegend	
Email: larrylegend11@aol.com

Tuning:CGCFAD 

Intro w/distortion (starts around :09)
d|--------4-4--------4-4------------2-2---------2-2-------------------------|
a|--------------------------------------------------------------------------|
f|--------------------------------------------------------------------------|
c|---4-4--------4-4------------2-2--------2-2---------2-0-------------------|
g|---4-4--------4-4------------2-2--------2-2---------2-0-------------------|
c|---4-4--------4-4------------2-2--------2-2---------2-0-------------------|


Rhythm Fig. 1 (play twice)
d|--------4-4--------4-4-----------4----------2-2--------2-2----------------|
a|--------------------------------------------------------------------------|
f|--------------------------------------------------------------------------|
c|---4-4---------4-4---------4-4---------2-2--------2-2---------2-0---------|
g|---4-4---------4-4---------4-4---------2-2--------2-2---------2-0---------|
c|---4-4---------4-4---------4-4---------2-2--------2-2---------2-0---------|



Rhythm Fig. 2 clean tone w/ delay (play 6 times)
f|-------------------------9-9----------------------------------------------|
a|--9-9-9-9---9h1010p9--9-----------7-7-7-7---7-7--------------------------|
d|---------------------------------------------------9-9-9--6---------------|
c|--------------------------------------------------------------------------|
g|--------------------------------------------------------------------------|
c|--------------------------------------------------------------------------|



Pre-chorus						w/distortion
d|--------------------------------------------------------------------------|
a|------9-9--------9-9-----------7-7--------7-7-----------------------------|
f|----9----------9-------------6----------6---------------------------------|
c|----------------------------------------------------2-0-------------------|
g|----------------------------------------------------2-0-------------------|
c|----------------------------------------------------2-0-------------------|



[ Tab from: http://www.guitartabs.cc/tabs/t/trapt/headstrong_tab_ver_6.html ]
Chorus (play Rhythm Fig. 1 twice and then Rhythm Fig. 3 twice)
Rhythm Fig.3
d|--------4-4------------------------------------2-2------------7-7---------|
a|--------------------------------------------------------------------------|
f|--------------------------------------------------------------------------|
c|---4-4--------4-4-------------4-4---------2-2----------2-2-----------2-0--|
g|---4-4--------4-4---<4>-<4>---4-4---<4>---2-2----------2-2-----------2-0--|
c|---4-4--------4-4-------------4-4---------2-2----------2-2-----------2-0--|




Rhythm Fig. 4 (play each part twice)
d|--------------------------------------------------------------------------|
a|--------------------------------------------------------------------------|
f|---15--15-15-15-15--13--11--14--14-14-9--9-9-9-6--------------------------|
c|--------------------------------------------------------------------------|
g|---13--13-13-13-13--11--9---12--12-12-7--7-7-7-4--------------------------|
c|--------------------------------------------------------------------------|


						  end of Rhythm Fig. 4
d|--------------------------------------------------------------------------|
a|--------------------------------------------------------------------------|
f|---15--15-15-15-15--16--/18---14-14-9--9-9-9-6----------------------------|
c|--------------------------------------------------------------------------|
g|---13--13-13-13-13--14--/16---1212-7--7-7-7-4----------------------------|
c|--------------------------------------------------------------------------|

Rest of Song:
Play Rhythm Fig. 2 6 times
Play Pre-chorus
Play Rhythm Fig. 1 2 times
Play Rhythm Fig. 3 2 times
Play Rhythm Fig. 4 


clean tone w/delay (play 3 times)
d|--16-16-16-16-16h1717p1616p14-14-14---14-14-14-1414h1616p14--14-14-14-|
a|--------------------------------------------------------------------------|
f|--------------------------------------------------------------------------|
c|--------------------------------------------------------------------------|
g|--------------------------------------------------------------------------|
c|--------------------------------------------------------------------------|


Play Pre-chorus
Play Rhythm Fig. 1 twice
Play Rhythm Fig. 3 Twice
Play Rhythm Fig. 4
Play Rhythm Fig. 1 once

Outro

d|---------4-4-----------------------------------14-14---------14-14--------|
a|-----------------------------------------------14-14---------14-14--------|   
f|--------------------------------------------------------------------------|
c|---4-4---------4-4----------4-4----------4-4------------4-4-----------2-0-|
g|---4-4---------4-4--<4><4>--4-4---<4>----4-4------------4-4-----------2-0-|
c|---4-4---------4-4----------4-4----------4-4------------4-4-----------2-0-|

| /  slide up
| \  slide down
| h  hammer-on
| p  pull-off
| <>  harmonic
=============================================================================
Comments