Trapt - Headstrong Chords & Tabs

 

Headstrong Chords & Tabs

Trapt Chords & Tabs

Version: 12 Type: Tab 0 ratings
1 star 2 stars 3 stars 4 stars 5 stars
comments

Headstrong Tab

   
-------------------------------------------------------------------------------
			     Headstrong - Trapt
-------------------------------------------------------------------------------
Tabbed by:EricYL
Email:ericho921@yahoo.com

Tuning: Drop-D

The ones previously tabbed by other people doesnt sound right, (well, except for the one
with b tuning).  So I tabbed it myself and I think this should be at least 95% correct


intro/chorus

e|--------2-2--------2-2------------0-0---------0-0--------------------------|
b|---------------------------------------------------------------------------|
g|------------------------------------------------------0--------------------|
d|---2-2--------2-2------------0-0--------0-0---------0-0--------------------|
a|---2-2--------2-2------------0-0--------0-0---------0-0--------------------|
d|---2-2--------2-2------------0-0--------0-0---------0----------------------|

verse

e|--2---2---2---2---2---3---2---7--------------------------------------------|
B|---------------------------------------------------------------------------|
G|---------------------------------------------------------------------------|
D|---------------------------------------------------------------------------|
A|---------------------------------------------------------------------------|
E|---------------------------------------------------------------------------|

e|--0---0---0---0---0---0----------------------------------------------------|
B|---------------------------3---3---0---------------------------------------|
G|---------------------------------------------------------------------------|
D|---------------------------------------------------------------------------|
A|---------------------------------------------------------------------------|
E|---------------------------------------------------------------------------|

post-chorus

e|---------------------------------------------------------------------------|
B|---------------------------------------------------------------------------|
G|--13--11--14--13--9-7------------------------------------------------------|
D|---------------------------------------------------------------------------|
A|--11--9---12--11--7-5------------------------------------------------------|
E|---------------------------------------------------------------------------|
[ Tab from: http://www.guitartabs.cc/tabs/t/trapt/headstrong_tab_ver_12.html ]
e|---------------------------------------------------------------------------|
B|---------------------------------------------------------------------------|
G|--13--14--16--7------------------------------------------------------------|
D|---------------------------------------------------------------------------|
A|--11--12--14--5------------------------------------------------------------|
E|---------------------------------------------------------------------------|

bridge

e|-2-2-2-2-2--3-2-0----------------------------------------------------------|
B|---------------------------------------------------------------------------|
G|---------------------------------------------------------------------------|
D|---------------------------------------------------------------------------|
A|---------------------------------------------------------------------------|
E|---------------------------------------------------------------------------|

e|-0-0-0-0-0--2-0---0--------------------------------------------------------|
B|----------------3----------------------------------------------------------|
G|---------------------------------------------------------------------------|
D|---------------------------------------------------------------------------|
A|---------------------------------------------------------------------------|
E|---------------------------------------------------------------------------|

e|-2-2-2-2-2--3-5-3----------------------------------------------------------|
B|---------------------------------------------------------------------------|
G|---------------------------------------------------------------------------|
D|---------------------------------------------------------------------------|
A|---------------------------------------------------------------------------|
E|---------------------------------------------------------------------------|

e|-0-0-0-0-0--2-2-2----------------------------------------------------------|
B|---------------------------------------------------------------------------|
G|---------------------------------------------------------------------------|
D|---------------------------------------------------------------------------|
A|---------------------------------------------------------------------------|
E|---------------------------------------------------------------------------|

order:

intro
verse
chorus
post-chorus
verse
chorus
bridge
chorus
post-chorus
ending(chorus)

| /  slide up
| \  slide down
| h  hammer-on
| p  pull-off
| ~  vibrato
| +  harmonic
| x  Mute note
===============================================================================
Comments