Trapt - Headstrong Chords & Tabs

 

Headstrong Chords & Tabs

Trapt Chords & Tabs

Version: 10 Type: Tab 0 ratings
1 star 2 stars 3 stars 4 stars 5 stars
comments

Headstrong Tab

(intro) (distortion)
e---------------------------------------------------------------
b------7--7-------7--7------------5--5-------5--5-----7--5--5---
g-----------------------------------------------------7--5--5---
d-----------------------------------------------------5--3--3---
a-7-7--------7-7-------------5-5--------5-5-----------5--3--3---
E---------------------------------------------------------------
                                                      PM.....

2X   
e---------------------------------------------------------------
b------7--7-------7--7------------------5-5-------5-5-----------
g---------------------------------------------------------------
d---------------------------------------------------------------
a-7-7--------7-7---------7-7-------5-5--------5-5----------3----
E---------------------------------------------------------------



5X (verse) (clean)
e---------------------------7-----------------------------------
b---7-----7-----8-----7------------5-----5-----5---3-----3---0--
g---------------------------------------------------------------
d---------------------------------------------------------------
a-7---7-7---7-7---7-7---7-7------5---5-5---5-5---3---3-3---3----
E---------------------------------------------------------------


4X (chorus) (distortion)
e---------------------------------------------------------------
b------7--7-------7--7------------------5-5-------5-5-----------
g---------------------------------------------------------------
d---------------------------------------------------------------
a-7-7--------7-7---------7-7-------5-5--------5-5----------3----
E---------------------------------------------------------------



(after chorus) (clean)
e---------------------------------------------------------------
b---------------------------------------------------------------
g-13--13---13-11---9----------------13-11---14--13--11----------
d--x---x----x--x---x-----------------x--x----x---x---x----------
a-11--11---11--9---7----------------11--9---12--11---9----------
E---------------------------------------------------------------


e---------------------------------------------------------------
b---------------------------------------------------------------
g-13--13---13-14---16---------------13-11---14--13--11----------
d--x---x----x--x----x----------------x--x----x---x---x----------
a-11--11---11-12---14---------------11--9---12--11---9----------
E---------------------------------------------------------------


6X (verse)
e---------------------------7-----------------------------------
b---7-----7-----8-----7------------5-----5-----5---3-----3---0--
g---------------------------------------------------------------
d---------------------------------------------------------------
a-7---7-7---7-7---7-7---7-7------5---5-5---5-5---3---3-3---3----
E---------------------------------------------------------------


4X (chorus) (distortion)
e---------------------------------------------------------------
b------7--7-------7--7------------------5-5-------5-5-----------
g---------------------------------------------------------------
d---------------------------------------------------------------
a-7-7--------7-7---------7-7-------5-5--------5-5----------3----
E---------------------------------------------------------------

[ Tab from: http://www.guitartabs.cc/tabs/t/trapt/headstrong_tab_ver_10.html ]
(after chorus) (clean)
e---------------------------------------------------------------
b---------------------------------------------------------------
g-13--13---13-11---9----------------13-11---14--13--11----------
d--x---x----x--x---x-----------------x--x----x---x---x----------
a-11--11---11--9---7----------------11--9---12--11---9----------
E---------------------------------------------------------------


e---------------------------------------------------------------
b---------------------------------------------------------------
g-13--13---13-14---16---------------13-11---14--13--11----------
d--x---x----x--x----x----------------x--x----x---x---x----------
a-11--11---11-12---14---------------11--9---12--11---9----------
E---------------------------------------------------------------


("hook")
e---------------------------------------------------------------
b---7-----7-----8-----7-----5------5-----5-----7-----5-----5----
g---------------------------------------------------------------
d---------------------------------------------------------------
a-7---7-7---7-7---7-7---7-7------5---5-5---5-5---5-5---5-5---5-5
E---------------------------------------------------------------


2X
e---------------------------------------------------------------
b---7-----7-----8-----10----8------5-----5-----7-----7-----7----
g---------------------------------------------------------------
d---------------------------------------------------------------
a-7---7-7---7-7---7-7---7-7------5---5-5---5-5---5-5---5-5---5-5
E---------------------------------------------------------------


4X (chorus) (distortion)
e---------------------------------------------------------------
b------7--7-------7--7------------------5-5-------5-5-----------
g---------------------------------------------------------------
d---------------------------------------------------------------
a-7-7--------7-7---------7-7-------5-5--------5-5----------3----
E---------------------------------------------------------------


(after chorus) (clean)
e---------------------------------------------------------------
b---------------------------------------------------------------
g-13--13---13-11---9----------------13-11---14--13--11----------
d--x---x----x--x---x-----------------x--x----x---x---x----------
a-11--11---11--9---7----------------11--9---12--11---9----------
E---------------------------------------------------------------


e---------------------------------------------------------------
b---------------------------------------------------------------
g-13--13---13-14---16---------------13-11---14--13--11----------
d--x---x----x--x----x----------------x--x----x---x---x----------
a-11--11---11-12---14---------------11--9---12--11---9----------
E---------------------------------------------------------------


e---------------------------------------------------------------
b---------------------------------------------------------------
g-13--13---13-11---9----------------13-11---14--13--11----------
d--x---x----x--x---x-----------------x--x----x---x---x----------
a-11--11---11--9---7----------------11--9---12--11---9----------
E---------------------------------------------------------------

2X (ending) (distortion)
e---------------------------------------------------------------
b------7--7-------7--7------------------5-5-------5-5-----------
g---------------------------------------------------------------
d---------------------------------------------------------------
a-7-7--------7-7---------7-7-------5-5--------5-5----------3----
E---------------------------------------------------------------
Comments