Trapt - Headstrong Chords & Tabs

 

Headstrong Chords & Tabs

Trapt Chords & Tabs

Version: 3 Type: Bass Tab

Headstrong Bass Tab

I like the way i did this one.  It doesn't require a 5-string bass.
Intro/Chorus Pt. 1
G ---------------------------------------|
D ---------------------------------------|
A --77-77-77-55-55----77-77-77-55-55-----|
E -----------------8-----------------8---|

Verse
[ Tab from: http://www.guitartabs.cc/tabs/t/trapt/headstrong_btab_ver_3.html ]
G ---------------------------------------|
D ---------------------------------------|
A --7777777777777777-55555555------------|
E ----------------------------88888888---|

Chorus Pt. 2

G ---------------------------------------|
D ---------------------------------------|
A -7~---7~--------5~---7~---7~-----------|
E -----------8~------------------8~---3~-|

This is my first tab so dont be too hard on it.  I think you can figure out which piece 
where
J.Roske