Trapt - Echo Chords & Tabs

 

Echo Chords & Tabs

Trapt Chords & Tabs

Version: 5 Type: Tab 0 ratings
1 star 2 stars 3 stars 4 stars 5 stars
comments

Echo Tab

Intro
Guitar 1
|---------------|-------------|---------------|-------------|
|---------------|-------------|---------------|-------------|
|---------------|-------------|---------------|-------------|
|----2--4--7----|--2--4-------|----2--4--7----|--2--4-------|
|----0--2--5----|--0--2--4----|----0--2--5----|--0--2--4----|
|---------------|--------2----|---------------|--------2----|

Guitar 2
|---------------|-------------|---------------|--------12*--|
|---------------|-------------|---------------|-------------|
|---------------|-------------|---------------|-------------|
|---------------|-------------|---------------|-------------|
|---------------|-------------|---------------|-------------|
|---------------|-------------|---------------|-------------|

Chorus
Guitar 1
|---------------|----------------|---------------|----------------|
|---------------|----------------|---------------|----------------|
|--7-777-7777---|----------------|--7-777-7777---|----------------|
|--7-777-7777---|--7-77-4-444-44-|--7-777-7777---|--7-77-4-444-44-|
|--5-555-5555---|--7-77-4-444-44-|--5-555-5555---|--7-77-4-444-44-|
|---------------|--5-55-2-222-22-|---------------|--5-55-2-222-22-|

Guitar 2
|---------------|----------------|---------------|----------------|
|---------------|----------------|---------------|----------------|
|--14--111314---|----------------|--14--111314---|----------------|
|---------------|----------------|---------------|----------------|
|---------------|--12------------|---------------|--12------------|
|---------------|-------14-------|---------------|-------14-------|

Both Guitars
|---------------|-------------|---------------|-------------|
|---------------|-------------|---------------|-------------|
|---------------|-------------|---------------|-------------|
|----2--4--7----|--2--4-------|----2--4--7----|--2--4-------|
|----0--2--5----|--0--2--4----|----0--2--5----|--0--2--4----|
|---------------|--------2----|---------------|--------2----|

Verse 1 & 2
Guitar 2
|-------------------------------------------|
|-------------------------------------------|
|--131414-13-13-13--13-1313--11-11-11-11----|
|-----16-16-14-14--14-14---14--12-12-12-12--| x6
|-------------------------------------------|
|-------------------------------------------|

Prechorus
Guitar 1
|---------------|-------------|---------------|-------------|
|---------------|-------------|---------------|-------------|
|---------------|-------------|---------------|-------------|
|----2--4--7----|--2--4-------|----2--4--7----|--2--4-------|
|----0--2--5----|--0--2--4----|----0--2--5----|--0--2--4----|
|---------------|--------2----|---------------|--------2----|
[ Tab from: http://www.guitartabs.cc/tabs/t/trapt/echo_tab_ver_5.html ]
Guitar 2
|-----------------------------|
|---101010-12-12-12-15-15-15-15-15-15-15-15-|
|---9-9-9--11-11-11-14-14-14-14-14-14-14-14-|
|-----------------------------| x4
|-----------------------------|
|-----------------------------|

Chorus
Guitar 1
|---------------|----------------|---------------|----------------|
|---------------|----------------|---------------|----------------|
|--7-777-7777---|----------------|--7-777-7777---|----------------|
|--7-777-7777---|--7-77-4-444-44-|--7-777-7777---|--7-77-4-444-44-|
|--5-555-5555---|--7-77-4-444-44-|--5-555-5555---|--7-77-4-444-44-|
|---------------|--5-55-2-222-22-|---------------|--5-55-2-222-22-|

Guitar 2
|--2--2--2--2---|--0----5--5--5--|
|---3--3--3--3--|---2--3-3--3--3-|
|----2--2--2--2-|----22---2--2--2|
|---------------|----------------|
|---------------|----------------|
|---------------|----------------|

Both Guitars
|---------------|-------------|---------------|-------------|
|---------------|-------------|---------------|-------------|
|---------------|-------------|---------------|-------------|
|----2--4--7----|--2--4-------|----2--4--7----|--2--4-------| x2
|----0--2--5----|--0--2--4----|----0--2--5----|--0--2--4----|
|---------------|--------2----|---------------|--------2----|

Verse
Prechorus
Chorus

Bridge
Guitar 1
|---------------|-------------|---------------|-------------|
|---------------|-------------|---------------|-------------|
|---------------|-------------|---------------|-------------|
|--4~~~~~~------|-------------|---------------|-------------|
|--4~~~~~~------|-------------|---------------|-------------|
|--2~~~~~~------|-------------|---------------|---#########-|

Guitar 2
|-------------------------------------------|
|--14p1212p1010p99p(7)\5/7v-----------------|
|-------------------------------------------|
|-------------------------------------------| x4
|-------------------------------------------|
|-------------------------------------------|

Guitar 1
|----------------------------------------|
|----------------------------------------|
|---------------4~~~-2---77-xx-99-xx-----|
|--4~~~~-7~~~~--4~~~-2---77-xx-99-xx-----|
|--4~~~~-7~~~~--2~~~-0---55-xx-77-xx-----|
|--2~~~~-5~~~~---------------------------|

Guitar 2
|-----------------------------------------------------|
|--10--9-10--9---9--10--9-10--9-9h10-10h12-9h10-10h12-|
|----11-9--11-9-9-9---11-9--11-9----------------------|
|-----------------------------------------------------|
|-----------------------------------------------------|
|-----------------------------------------------------|

|-----------------------------------------------------|
|-9h10-10h12-9h10-10h12-14p12-101210-9-10-9-10-7-9-7--|
|-----------------------------------------------------|
|-----------------------------------------------------| x4
|-----------------------------------------------------|
|-----------------------------------------------------|

Intro
Prechorus
Chorus

p = pulloff
/ = slide up
\ = slide down
v = vibrato
~ = let ring
# = pick slide
Comments