Trapt - Echo Chords & Tabs

 

Echo Chords & Tabs

Trapt Chords & Tabs

Version: 1 Type: Tab 0 ratings
1 star 2 stars 3 stars 4 stars 5 stars
comments

Echo Tab

Trapt - Echo

Tabbed By: Timmy Chiasson
E-mail: amplified_band@hotmail.com

*=Harmonic

Intro
E---------------------------------------------------------------|
B---------------------------------------------------------------|
G---------------------------------------------------------------|
D----2---4---7-------2---4---------2---4---7-----2---4------7*--|
A----0---2---5-------0---2--4------0---2---5-----0---2---4------|
E---------------------------2----------------------------2------|
                    close my eyes...
A source tells me that this is the part to play here, repeat it a bunch, and play
it during the chorus too.

E: --0--2--4--5--4--2-------|
B: -------------------------|
G: -------------------------|
D: -------------------------|
A: -------------------------|
E: -------------------------|


then the intro with distortion.
E--------------------------------------------------------------------------|
B--------------------------------------------------------------------------|
G--------------------------------------------------------------------------|
D----------2---4---7-------2---4---------2---4---7-----2---4---------------|
A----------0---2---5-------0---2--4------0---2---5-----0---2---4-----------|
E---------------------------------2----------------------------2-----------|
Ill run away with you,.... By my side...
Verse
E--------5---5---4--4--4--------4--4--2--2--2------------------------------|
B--------------------------------------------------------------------------|
G--------------------------------------------------------------------------|
D--------------------------------------------------------------------------|
A--------------------------------------------------------------------------|
E--------------------------------------------------------------------------|
	I think about your face...
[ Tab from: http://www.guitartabs.cc/tabs/t/trapt/echo_tab.html ]
Then this with distortion
E-------------------------------------------------------------------|
B-------------------------------------------------------------------|
G-------------------------------------------------------------------|
D----------2---4---7-------2---4---------2---4---7-----2---4--------|
A----------0---2---5-------0---2--4------0---2---5-----0---2---4----|
E---------------------------------2----------------------------2----|
	Close my eyes

Not to sure about this part...any suggestions e-mail me.
play the first guitar part above that i said to play in the chorus here.
E--------------------------------------------------------|
B--------------------------------------------------------|
G--------------------------------------------------------|
D----------7-----7-----7---------4----4----4-------------|
A----------7-----7-----7---------4----4----4-------------|
E----------5-----5-----5---------2----2----2-------------|
	Asking whyyyy, ill run away with you
Then you go back to the verses.
Then to the intro with distortion, then this 2nd guitar part again.
Then back to the intro with distortion.

Also a little unsure of this interlude, but hey, first tab.
Repeat it a couple of times. use delay effect.
E--------9---7-------------------------------------|
B------------------10---9-----7--------------------|
G--------------------------------------------------|
D--------------------------------------------------|
A--------------------------------------------------|
E--------------------------------------------------|

Then go to the intro and play it clean.
Then play the part just after the intro, ill run away with you
Then its intro with distortion.
And that's all thats too it, not a hard song at all. Peace

[Chorus:]
Close my eyes
Let the whole thing pass me by
There is no time
To waste asking why
So I'll run away with you by my side
I need to let go, let go, let go, let go of this pride,
(Asking why)

I think about your face
And how I fall into your eyes
The outline that I trace
Around the one that I call mine
Time that called for space
Unclear where you drew the line
I don't need to solve this case
And I don't need to look behind

[Chorus]

Do I expect to change, the past I hold inside,
with all the words I say,
repeating over in my mind,
somethings you can't erase, no matter how hard you try,
an exit to escape is all there is left to find.

[x2]
Close my eyes
Let the whole thing pass me by
There is no time
To waste asking why
So I'll run away with you by my side
I need to let go, let go, let go, let go of this pride,
Until this echo in my mind
Until this echo, echo, echo, echo can subside
Comments