Trapt - Echo Chords & Tabs

 

Echo Chords & Tabs

Trapt Chords & Tabs

Version: 1 Type: Bass Tab 0 ratings
1 star 2 stars 3 stars 4 stars 5 stars
comments

Echo Bass Tab

Band- Trapt
Song- Echo

Standard 5 string tuning (BEADG) If you don't have a 5 string bass don't worry, tune for 
4 string (EADG)

Key:
~ let ring

12/14 slide up from fret 12 to 14

* Play note in sticato
5 (short punctuated notes)

	Bass comes in after 4 measures
Intro (0:11)
G---------------------------|
D---------------------------|
A--5~~~--------5~~~---------|
E------5~~~2~~~----5~~~2~~~-|
B---------------------------|

Verse 1 (0:23)
G----------------------|
D----------------------| [2x]
A------5~~~------------|
E--5-7-----5-7-2~~~----|
B----------------------|

Verse 2(for 5 string)(0:35)
G------11------------11-------|
D---------11~~~~--------12~~~-|
A-----------------------------|
E-----------------------------|
B--7~~~---------7~~~~---------|

G------11---------------------------------|
D---------11~~~~0-12/14-12-11~------------|
A-----------------------------------------|
E--------------------------------5--------|
B--7~~~------------------------7---7-5~~~-|

G------11------------11-------|
D---------11~~~~--------12----|~~ [3x]
A-----------------------------|
E-----------------------------|
B--7~~~---------7~~~~---------|

G------11----------------|
D---------11~~~~---------|
A------------------------|
E------------------------|
B--7~~~---------7~~~~~~~-|

Verse 2 (for 4 string)(0:35)
G------11------------11-------|
D---------11~~~~--------12~~~-|
A-----------------------------|
E--2~~~---------2~~~~---------|

G------11---------------------------------|
D---------11~~~~0-12/14-12-11~------------|
A--------------------------------0--------|
E--2~~~------------------------2---2-0~~~-|

G------11------------11-------|
D---------11~~~~--------12----|~~ [3x]
A-----------------------------|
E--2~~~---------2~~~~---------|

G------11----------------|
D---------11~~~~---------|
A------------------------|
E--2~~~---------2~~~~~~~-|

Verse 1 (1:10)
G----------------------|
D----------------------| [2x]
A------5~~~------------|
E--5-7-----5-7-2~~~----|
B----------------------|

Verse 3 (1:22)
G---------------------------|
D---------------------------|
A--5~~~--------5~~~---------|
E------5-5-2~~~----5-5-2~~~-|
B---------------------------|
[ Tab from: http://www.guitartabs.cc/tabs/t/trapt/echo_btab.html ]
Verse 1 (1:33)
G----------------------|
D----------------------| [2x]
A------5~~~------------|
E--5-7-----5-7-2~~~----|
B----------------------|

Verse 2 (for 5 string)(1:45)
G------11------------11-------|
D---------11~~~~--------12~~~-|
A-----------------------------|
E-----------------------------|
B--7~~~---------7~~~~---------|

G------11---------------------------------|
D---------11~~~~0-12/14-12-11~------------|
A-----------------------------------------|
E--------------------------------5--------|
B--7~~~------------------------7---7-5~~~-|

G------11------------11-------|
D---------11~~~~--------12----|~~ [3x]
A-----------------------------|
E-----------------------------|
B--7~~~---------7~~~~---------|

G------11----------------|
D---------11~~~~---------|
A------------------------|
E------------------------|
B--7~~~---------7~~~~~~~-|

Verse 2 (for 4 string)(1:45)
G------11------------11-------|
D---------11~~~~--------12~~~-|
A-----------------------------|
E--2~~~---------2~~~~---------|

G------11---------------------------------|
D---------11~~~~0-12/14-12-11~------------|
A--------------------------------0--------|
E--2~~~------------------------2---2-0~~~-|

G------11------------11-------|
D---------11~~~~--------12----|~~ [3x]
A-----------------------------|
E--2~~~---------2~~~~---------|

G------11----------------|
D---------11~~~~---------|
A------------------------|
E--2~~~---------2~~~~~~~-|

Verse 1 (2:20)
G----------------------|
D----------------------| [2x]
A------5~~~------------|
E--5-7-----5-7-2~~~----|
B----------------------|

Verse 3(2:33)
G---------------------------|
D---------------------------|
A--5~~~--------5~~~---------|
E------5-5-2~~~----5-5-2~~~-|
B---------------------------|

Verse 1(2:44)
G----------------------|
D----------------------| [3x]
A------5~~~------------|
E--5-7-----5-7-2~~~----|
B----------------------|

G----------------------|
D----------------------|
A------5~~~*-*---------|
E--5-7-----5-7-2~~~----|
B----------------------|

(Break in bass)

Verse 3 (3:23)
G---------------------------|
D---------------------------|
A--5~~~--------5~~~---------|
E------5~~~2~~~----5~~~2~~~-|
B---------------------------|

Verse 1 (3:34)
G----------------------|
D----------------------| [3x]
A------5~~~------------|
E--5-7-----5-7-2~~~----|
B----------------------|

G----------------------|
D----------------------|
A------5~~~*-*---------|
E--5-7-----5-7-2~~~----|
B----------------------|
Comments