Transplants - Weigh On My Mind Chords & Tabs

 

Weigh On My Mind Chords & Tabs

Transplants Chords & Tabs

Version: 4 Type: Tab 0 ratings
1 star 2 stars 3 stars 4 stars 5 stars
comments

Weigh On My Mind Tab

   
tabbed by: dorteater
band: transplants
song: weigh on my mind
album: transplants
[ Tab from: http://www.guitartabs.cc/tabs/t/transplants/weigh_on_my_mind_tab_ver_4.html ]
Intro Guitar 1
e-7--5-----------7--5----------|
b-8--5-----------8--5----------|
g-7--------------7-------------|
d------------------------------|
a------------------------------|
E------------------------------|
Intro Guitar 2
e------------------------------|
b------------------------------|
g------------------------------|
d------7h8p7-5---------7h8p7-5-|
a------------------------------|
E------------------------------|
Chorus  about 4x
e----------------------------------------|
b----------------------------------------|
g----------------------------------------|
d-555555-777777-101010101010101010101010-|
a-555555-777777-101010101010101010101010-|
E-333333-555555-8-8-8-8-8-8-8-8-8-8-8-8--|

Verse   2x     |   Clean no distortion
               |        2x
               |
e--------------|-3~--5~--8-~--|
b--------------|-3~--5~--8-~--|
g--------------|-4~--6~--9-~--|
d--------------|-5~--7~--10~--|
a----------5~--|-5~--7~--10~--|
E-5~---7~------|--------------|
Comments