Transplants - Weigh On My Mind Chords & Tabs

 

Weigh On My Mind Chords & Tabs

Transplants Chords & Tabs

Version: 2 Type: Tab 0 ratings
1 star 2 stars 3 stars 4 stars 5 stars
comments

Weigh On My Mind Tab

Artist: Transplants
Song: Weigh On My Mind
Album: Transplants
Tuning: Standard
Tabbed by: Simon Olierook

1st Guitar
[ Tab from: http://www.guitartabs.cc/tabs/t/transplants/weigh_on_my_mind_tab_ver_2.html ]
e|-7---5---3-------------7---5---3---------
B|-8---6---3-------------8---6---3---------
G|---------3---------------------3---------
D|-----------------------------------------
A|-----------------------------------------
E|-----------------------------------------

2nd Guitar

e|-----------------------------------------
B|-----------------------------------------
G|---------2/3\2-0---------------2/3\2-0---
D|-----------------------------------------
A|-----------------------------------------
E|-----------------------------------------
Comments