Transplants - Weigh On My Mind Chords & Tabs

 

Weigh On My Mind Chords & Tabs

Transplants Chords & Tabs

Version: 1 Type: Tab 0 ratings
1 star 2 stars 3 stars 4 stars 5 stars
comments

Weigh On My Mind Tab

Artist:Transplants
Song:Weigh on my mind
Album:Transplants

Standard Tuning

Intro
Guitar 1:distorted
|---12-10-8--12-10-8---|
|---12-10-8--12-10-8---|
|---12-10-8--12-10-8---|
|---12-10-8--12-10-8---|
|----------------------|
|----------------------|
[ Tab from: http://www.guitartabs.cc/tabs/t/transplants/weigh_on_my_mind_tab.html ]
Guitar 2:Distorted
|---------------------------|
|---10/11/10-8--10/11/10-8--|
|---------------------------|
|---------------------------|
|---------------------------|
|---------------------------|

The second guitar comes in about right after the first guitar plays the 10's.
this is my first tab so im sure its not perfect but its close enough.
Comments