Transplants - Sad But True Chords & Tabs

 

Sad But True Chords & Tabs

Transplants Chords & Tabs

Version: 1 Type: Tab 0 ratings
1 star 2 stars 3 stars 4 stars 5 stars
comments

Sad But True Tab

Transplants
"Sad But True"
Tranplants
Tabbed by Paul


[ Tab from: http://www.guitartabs.cc/tabs/t/transplants/sad_but_true_tab.html ]
Intro Organ
e-4~-------
b-4~-6~-8~-
g-5~-6~-8~-
d-6~-6~-8~-  REPEAT
a-6~-4~-6~-
E----------
Intro Guitar 1
e------------------------
b-4-444444-6666-888-8-6--
g------------------------ 
d------------------------
a------------------------
E------------------------
Intro Guitar 2 Reapeat though out almost whole song
e-3/4-44444-3/4-44444-9-999999----11----11-
b-3/4-44444-3/4-44444-9-999999-11----11----
g------------------------------------------
d------------------------------------------
a------------------------------------------
E------------------------------------------
Repeat through out almost whole song
e------------------------
b------------------------
g-------------6666--8888-
d-6666--6666--6666--8888-
a-6666--6666--4444--6666-
E-4444--4444-------------
First solo thing 2x 2nd Time don't play first 4 notes
e-------------------------------------------------------------
b-------------------------------------------------------------
g----------------1---1---1---1---1---1----3-5-3-1--3-5-3-1----
d-3--1~-3--1~--3---3---3---3---3---3---3----------------------
a-------------------------------------------------------------
E-------------------------------------------------------------
(IN A DREAM.....)Clean No Distortion
e-------------------------------------
b-------------------------------------
g-------------------------------------
d-------------------------------------
a--------------------4-44444-6-66666--
E-4-44444-4-44444---------------------
SOLO 2x
e---------------------------------------------------
b-18--16--18--18--16--18-16-18-18-16-18-16-18-16-18-
g---------------------------------------------------
d---------------------------------------------------
a---------------------------------------------------
E---------------------------------------------------
Last solo     2x                                        1x
e--------------------------------------------------|------------
b--------------------------------------------------|------------
g-----1---1---1---1---1---1----3-5-3-1--3-5-3-1----|---1~----1~-
d---3---3---3---3---3---3---3----------------------|-3-----3----
a--------------------------------------------------|------------
E--------------------------------------------------|------------

Then End With (IN a Dream.....) Riff
Comments