Transplants - Romper Stomper Chords & Tabs

 

Romper Stomper Chords & Tabs

Transplants Chords & Tabs

Version: 2 Type: Tab 0 ratings
1 star 2 stars 3 stars 4 stars 5 stars
comments

Romper Stomper Tab

   
Heres the correct way to play Romper Stomper, it's a pretty easy song
actually..  

Key

p = pull off
/ = slide up
\ = slide down
~ = vibrato



Intro
  Riff A
e|-------------|
B|-------------|
G|-------------|repeat as needed
D|-------------|
A|-0----2--3p2-|<-just a little pull off effect not a full pull off
E|-0----2--3p2-|
The intro starts with one guitar but then after you play this
riff twice, the second guitar kicks in playing the same thing

then while gtr. I plays Riff A over and over.. 

gtr II plays..
  Riff B
e|-------------------------------------------------------------------------|
B|-------------------------------------------------------------------------|
G|-------------------------------------------------------------------------|
D|-9~------8~------7~-------5~---------------------------------------------|
A|-------------------------------------------------------------------------|
E|-------------------------------------------------------------------------|
this part plays with some weird effects  (repeat as needed)

Verse
gtr. I plays
 "An knock out drag out one on one.."
  Riff C
e|---------|
B|---------|
G|---------|repeat as needed
D|-3~--/6--|
A|---------|
E|-1~------|

[ Tab from: http://www.guitartabs.cc/tabs/t/transplants/romper_stomper_tab_ver_2.html ]
Preverse
gtr. I plays Riff A 
gtr. II plays Riff B 


Verse
gtr. I plays Riff C


Chorus

this time...
gtr. I keeps playing Riff C
gtr. II plays Riff A


Solo
 gtr. I (with gain low)
e|-------------------------------------------------------------------------|
B|-10~-----9~------8~--------/16-----10~------9~-------8~--------/16-------|
G|-------------------------------------------------------------------------|
D|-------------------------------------------------------------------------|
A|-------------------------------------------------------------------------|
E|-------------------------------------------------------------------------|

Verse 
gtr. I plays (with gain low but it gets turned up gradually)
  "If I got your back.."
e|--------------------------------------------------|
B|-10~-----9~------8~------6~-(gain gets turned up)-|
G|-9~------8~------7~------5~-----------------------|now repeat w/ gain up
D|--------------------------------------------------|
A|--------------------------------------------------|
E|--------------------------------------------------|


Chorus

both gtrs play Riff A

then

it switches to gtr. I playing Riff A and gtr. II
playing Riff B.. just listen to song to get it...


Ending

gtr. I plays Riff A (but gtr I's volume is down low)
gtr. II plays Riff B..


And thats the whole song.. simple..
Comments