Transplants - Quick Death Chords & Tabs

 

Quick Death Chords & Tabs

Transplants Chords & Tabs

Version: 1 Type: Tab 0 ratings
1 star 2 stars 3 stars 4 stars 5 stars
comments

Quick Death Tab

Transplants
Quick Death
Transplants



 s  = slide
 *  = palm mute
(5) = Harmonic


Part 1 (not too sure about this bit)
|---------------|
|---------------|
|---------------| x4
|-3s4--3--3--3--|
|-3s4--3--3--3--|
|-1s2--1--1--1--|


Part 2 (Guitar 2 pick scrapes)
|------------------------------|
|------------------------------|
|------------------------------| x4
|-4-4-4-4-4-4-4-4-4-4-4--2--7--|
|-4-4-4-4-4-4-4-4-4-4-4--2--7--|
|-2-2-2-2-2-2-2-2-2-2-2--0--5--|


Part 3
|-------------------------|
|-------------------------|
|-------------------------| x4 (Throw in some harmonics on the G string, 5th fret
|-------------------------|	every now and then)
|-0-0-0-0-6p5-0-4p3-0-3p2-|
|-------------------------|
  * * * *     *     *      
[ Tab from: http://www.guitartabs.cc/tabs/t/transplants/quick_death_tab.html ]
Part 4
|------|
|------|
|------| x4
|-14s2-|
|-14s2-|
|-12s0-|

Part 3 x8 (Palm Mute the Whole Thing)

Part 4 x8

Part 3 x8 (Palm Mute the Whole Thing)

Part 4 x4

Part 2 x4

Part 3 x4

Part 4 x16


Part 5 (not too sure about this either, may not even be guitar)
|-----------------------------|
|-----------------------------|
|-------------------(5)-------| x4
|-4-4444-----4-4444----4-4444-|
|-4-4444-----4-4444----4-4444-|
|-2-2222-----2-2222----2-2222-|
    ****       ****      ****

Part 6
|------------------------------------------|
|-12s17171717171717171717171717171717------|     (seventeen not one and seven)
|-------play-lots--------------------------| x1
|-------------------------------------14s2-|
|-------------------------------------14s2-|
|-------------------------------------12s0-|

Part 2 x4

Part 3 x8

Part 4 x8

All done.
Comments