Transplants - Gangsters And Thugs Chords & Tabs

 

Gangsters And Thugs Chords & Tabs

Transplants Chords & Tabs

Version: 2 Type: Tab

Gangsters And Thugs Tab

standard tuning

/ =slide
h =hammer on
p =pull off
~ =let ring

www.thetransplants.com
[ Tab from: http://www.guitartabs.cc/tabs/t/transplants/gangsters_and_thugs_tab_ver_2.html ]
e------------------------------|
b--9/11/9----------------------|
g--------10-10-10-8/6-h8p6~----|   x2
d------------------------------|
a------------------------------|
e------------------------------|

e--------------------------------------|
b--------------------------------------|
g------6-------------------------------|
d--6h8--8-8-6-6~~-6--------------------|
a-------------------8-4-4-4-4-------4~-|
e-----------------------------2-2-4----|