Transplants - Down In Oakland Chords & Tabs

 

Down In Oakland Chords & Tabs

Transplants Chords & Tabs

Version: 2 Type: Tab 0 ratings
1 star 2 stars 3 stars 4 stars 5 stars
comments

Down In Oakland Tab

            

Key


/ = slide up
\ = slide down
() = harmonics



(use alot of alternate picking on the D string)
e|-------------------------------------------------------------------------|
B|-------------------------------------------------------------------------|
G|-------------------------------------------------------------------------|
D|-3-333-3-----0-0-0-0--------3-333-3-----0-0-0-0-0-0----------------------|
A|---------3-----------2-(0)----------3------------------------------------|
E|-------------------------------------------------------------------------|
[ Tab from: http://www.guitartabs.cc/tabs/t/transplants/down_in_oakland_tab_ver_2.html ]
e|-------------------------------------------------------------------------|
B|-----------------------------------------------------------7/8-7---------|
G|-----------------------------------------------------4-------------------|
D|-3333-3-----0-0-0-0--------3-333-3-----0-0-0-0-0-0-----------------------|
A|--------3-----------2-(0)----------3-------------------------------------|
E|-------------------------------------------------------------------------|


e|-------------------------------------------------------------------------|
B|------(7)-7/8-7---------(7)--7/8\7---------------------------------------|
G|--4----------------------------------------------------------------------|
D|----------------------------------------2-3------------------------------|
A|--------------------------------------------1-2--------------------------|
E|------------------------------------------------1--0---------------------|


"Hey where am I?"
e|-------------------------------------------------------------------------|
B|-------------------------------------------------------------------------|
G|-------------------------------------------------------------------------|
D|-3-4-2--0---1--0-----3-4-2--0---1--0-----3-4-2--0---1--0------0----------|
A|-------------------------------------------------------------------------|
E|-------------------------------------------------------------------------|

There ya go people of the UG...
Comments