Transplants - Dj Dj Chords & Tabs

 

Dj Dj Chords & Tabs

Transplants Chords & Tabs

Version: 3 Type: Bass Tab 0 ratings
1 star 2 stars 3 stars 4 stars 5 stars
comments

Dj Dj Bass Tab

Transplants  dj dj

Intro/Fill/Outro: "Watch me now"
G|--------------------------------------------|
D|--------------------------------------------|
A|-7---5-6-7----5-6-7-----5-6-7-6-7-6-7-6-7-6-|(x2)
E|---7--------7--------7----------------------|
[ Tab from: http://www.guitartabs.cc/tabs/t/transplants/dj_dj_btab_ver_3.html ]
Verse: "Nobody move, and nobody gets hurt they said..."
G|--------------------------|
D|--------------------------|
A|-7-7----------------------|
E|--------5-5----7-7----5-5-|

Chorus: "Were gonna make it on our own, we don't need anyone..."
G|-----------------------------------|
D|-9/11~--7/9-7~----9/11-9~----------|
A|---------------7~------------------|
E|-----------------------------------|

coments to: joselo_57@hotmail.com
Comments