Transplants - Dj Dj Chords & Tabs

 

Dj Dj Chords & Tabs

Transplants Chords & Tabs

Version: 2 Type: Bass Tab 0 ratings
1 star 2 stars 3 stars 4 stars 5 stars
comments

Dj Dj Bass Tab

   
-------------------------------------------------------------------------------
			     Dj Dj - Transplants
-------------------------------------------------------------------------------

Tabbed By : Zero is Great man 
Tuning: Standard: EADG

Intro/Fill/Outro: "Watch me now"
G|--------------------------------------------|
D|--------------------------------------------|
A|-7---5-6-7----5-6-7-----5-6-7-6-7-6-7-6-7-6-|(x2)
E|---7--------7--------7----------------------|
[ Tab from: http://www.guitartabs.cc/tabs/t/transplants/dj_dj_btab_ver_2.html ]
Verse: "Nobody move, and nobody gets hurt they said..."
G|--------------------------|
D|--------------------------|
A|-7-7----------------------|
E|--------5-5----7-7----5-5-|

Chorus: "Were gonna make it on our own, we don't need anyone..."
G|-----------------------------------|
D|-----------------------------------|
A|-7-7-7-7-7-7-7-7--\0-0-0-0-0-0-0-0-|
E|-----------------------------------|

"Lord knows we don't need you, yeah"
G|------------------------------------------|
D|------------------------------------------|
A|-/-7-7-7-7-7-7-7-7--0---------------------|
E|----------------------0-/-7-7-7-7-7-7-7-7-|


| /  slide up
| \  slide down
| h  hammer-on
| p  pull-off
| ~  vibrato
| +  harmonic
| x  Mute note

===============================================================================
Comments