Transplants - Diamonds And Guns Chords & Tabs

 

Diamonds And Guns Chords & Tabs

Transplants Chords & Tabs

Version: 8 Type: Tab 0 ratings
1 star 2 stars 3 stars 4 stars 5 stars
comments

Diamonds And Guns Tab

Right, I've looked at the other tabs n' they're all missin' the same bit,
so im gunna do the proper tab, it's not a 100% i dnt think but it'll do.

Standard Tuning: EADGBe


Piano, arranged for guitar
e|-------3-1---------------1-|
B|---1-4-----4-3-------------|
G|-3---------------3-3--3----|
D|---------------------------|
A|---------------------------|
E|---------------------------|

Intro/pre-verse
e|------------|
B|------------|
G|-5-5----3-4-|
D|-5-5-5--3-4-|   X4
A|-3-3-5--1-2-|
E|-----3------|
[ Tab from: http://www.guitartabs.cc/tabs/t/transplants/diamonds_and_guns_tab_ver_8.html ]
Play this towards the end of verse 1, and play it twice in verse 2, and then
played again towards the end of verse 3, if you want proper timin then listen to
the song, or even better play along;
Verse
e|-----|
B|-----|
G|-5-5-|   X4 towards the end of verse 1
D|-5-5-|   X4 towards the end of Tim's bit in verse 2 then; 
A|-3-3-|   X4 towards the end of Rob's bit in verse 2
E|-----|   X4 towards the end of verse 3

Right, now for the bit thats missin' from the other tabs, the chorus!!! This is
were tim sings "It's a wicked world that we live on, it's cruel and unforgiven"
(in the 1st n 3rd verse) and were rob sings "negative outlook, well that's how im
livin' and like he said it's a wicked world we live in.......it's a wicked world
we live in"(in the 2nd verse)

Chorus
e|-----------------------|        
B|-----------------------|
G|-------------h---------|
D|-0--5b-5b--2-3-0---h---| X2  
A|-----------------5-7-0-|
E|-----------------------|

The outro is just all of it played together as it fades

it's really that simple, please rate this tab coz it's my first &
i wanna know how much it sux, cheers!!!!
Comments