Transplants - Diamonds And Guns Chords & Tabs

 

Diamonds And Guns Chords & Tabs

Transplants Chords & Tabs

Version: 5 Type: Tab 0 ratings
1 star 2 stars 3 stars 4 stars 5 stars
comments

Diamonds And Guns Tab

Artist: Transplants
Song  : Diamonds And Guns
Hey this is a very easy song i decided to tab. I play drums but figured this out
and its really easy so here it is. Oh yeah i threw in the piano part just because
its somethin i made up. Im pretty sure its not right, but you can take it and
work from it.

Intro/Chorus
e|----------------------------|
B|----------------------------|
G|---------7--7---------------|
D|-5--5----5--5---------------|
A|-3--3------------8----------|
E|-----------------6----------|
[ Tab from: http://www.guitartabs.cc/tabs/t/transplants/diamonds_and_guns_tab_ver_5.html ]
Verse:
e|---------|
B|---------|
G|---------|
D|-5--5----|
A|-3--3----|
E|---------|

Pre Chorus:
e|---------------------|
B|---------------------|
G|---------------------|
D|---------------------|
A|-5--5-----3--4-------|
E|-------5-------------|

Piano Part:
e|--------------------------------|
B|--------------------------------|
G|--------0-----------------------|
D|---1------1----1---------1------|
A|-3---3------3-----1-1-1---------|
E|--------------------------------|

Hahaha im pretty sure that aint all that rite but anyway, hope ya like the tab.
And please rate it! 

Later everyone,
Jason
Comments