Transmatic - Blind Spot Chords & Tabs

 

Blind Spot Chords & Tabs

Transmatic Chords & Tabs

Version: 1 Type: Tab 0 ratings
1 star 2 stars 3 stars 4 stars 5 stars
comments

Blind Spot Tab

   
Transmatic - Blind Spot

Tabber - Me (Jake Chen) 

If you don't want to, don't use the Drop D, I just think 
its more comfortable to play, even though I know the band 
uses standard. But remember to use standard for the 2nd 
guitar. Oh yeah, figure out all the rhythms and order 
of the song yourself. (lazy bastards...) 

Corrections or whatever e-mail me at darc_blade@hotmail.com...


Legend:
(1) = guitar one (clean)
(2) = guitar two (moderate distortion)

Intro/Chorus - Where he sings "ooooh yeah" at the intro
            and when he sings "hit me in the blind spot"

   (1)
E|-------------------------------------|
B|-------------------------------------|
G|-1--1--------------------------------|
D|-2--2--9-9-9--11-11-11--6-7-7--6-7-7-|
A|-2--2--9-9-9--11-11-11--6-7-7--6-7-7-|
D|-2--2--9-9-9--11-11-11--6-7-7--6-7-7-|


   (2)
E|-------------------------------------|
B|-------------------------------------|
G|----7-6-7----7-6-7----7-6-7----7-6-7-|
D|-------------------------------------|
A|-----------------------------0-------|
E|-0---------7--------9----------------|

Riff 1 - Riff at end of chorus and at the bridge

   (1)        (2)     (1)     (2)
E|-0------------------0----------V---|
B|-0-------5-4-5-5/7--0-------10-9---|
G|-1------------------2--------------|
D|-2------------------2--------------|
A|-2------------------0--------------|
D|-2---------------------------------|

Verse - "Dont' try to make this special..."
  (just for the first few lines, then the next riff) 
E|-0--0-|
B|-0--0-|
G|-1--2-|
D|-2--2-|
A|-2--0-|
D|-2----| (let it ring) (1)
[ Tab from: http://www.guitartabs.cc/tabs/t/transmatic/blind_spot_tab.html ]
  (Then he goes to this) (1)
E|-0-0-0--0--|
B|-0-0-0--0--|
G|-2-2-2--1--|
D|-2-2-2--2--|
A|-0-0-0--2--| Right before he says...
D|--------2--| "But I know you'll find me out..."

(1)

E|-0--0----0--0-----0--0----0--0---|
B|-0----0--0----0---0----0--0----0-|
G|-1-------1--------2-------2------|
D|-2-------2--------2-------2------|
A|-2-------2--------0-------0------|
D|-2-------2-----------------------|

Pre Chorus - "But I can't get by waiting on fate..."

   (1)
E|-----------------------------|
B|-----------------------------|
G|-1-1-1-----------------------|
D|-2-2-2/9-9-9--6-6-6-6--7-7-7-|
A|-2-2-2/9-9-9--6-6-6-6--7-7-7-|
D|-2-2-2/9-9-9--6-6-6-6--7-7-7-|

   (2)
E|-------------|
B|-5-5-5-4-4-4-|
G|-4-4-4-4-4-4-|
D|-------------|
A|-------------|
E|-------------| x2

Bridge - "Everything is messed up lately..."

    (1)            (STOP MUTE)
E|------------------0-0------|
B|--(PALM MUTE)-----0-0------|
G|------------------1-1------|
D|-6-6-6-6--7-7-7---2-2--9-9-|
A|-6-6-6-6--7-7-7---2-2--9-9-|
D|-6-6-6-6--7-7-7---2-2--9-9-|

    (1)           (STOP MUTE)
E|-----------------------------|
B|--(PALM MUTE)----------------|
G|-----------------------------|
D|-6-6-6-6--7-7-7--9-9-9-9-9-9-|
A|-6-6-6-6--7-7-7--9-9-9-9-9-9-|
D|-6-6-6-6--7-7-7--9-9-9-9-9-9-| (Follow up with Riff 1 
				     immediately) 

Ending - "aaaaahhhh..."

    (1)
E|-------------------------|
B|-------------------------|
G|-------------------------|
D|-7-6--7-6--7-6--7-6--7-7-|
A|-7-6--7-6--7-6--7-6--7-7-|
D|-7-6--7-6--7-6--7-6--7-7-| 

     (2)
E|-------------------------|
B|-------------------------|
G|-------------------------|
D|-7-6--7-6--7-6--7-6--7-7-|
A|-7-6--7-6--7-6--7-6--7-7-|
E|-5-4--5-4--5-4--5-4--5-5-| 
Comments