Transiberian Orchestra - Carol Of The Bells Chords & Tabs

 

Carol Of The Bells Chords & Tabs

Transiberian Orchestra Chords & Tabs

Version: 2 Type: Tab 2 ratings
1 star 2 stars 3 stars 4 stars 5 stars
comments

Carol Of The Bells Tab

Carol of the bells
Transiberian Orchestra

-----0-3-2-------------
---0-------------------
----------------------- x19 slowdown at the end
-----------------------
-----------------------
-----------------------




with medium distortion
-----------------------
-----------------------
----------------------- x20 times extremely fast
----2------------------
----2------------------
----0------------------


---3-2-3-0-------------
-----------------------
----------------------- x4
-----------------------
-----------------------
-----------------------


---7-5-7-3-------------
-----------------------
----------------------- x 4
-----------------------
-----------------------
-----------------------

[ Tab from: http://www.guitartabs.cc/tabs/t/transiberian_orchestra/carol_of_the_bells_tab_ver_2.html ]
--12-12-12-10-7-7-7-7-5-3-5-5-5-7-5-0---
----------------------------------------
----------------------------------------
----------------------------------------
----------------------------------------
----------------------------------------


--------0-2-3-5-7-5-3------
--0-2-4--------------------
--------------------------- x3
---------------------------
---------------------------
---------------------------


--------0-2-3--------------
--0-2-4--------------------
--------------------------- x3
---------------------------
---------------------------
---------------------------

if you need help just email me at fidosf2130@yahoo.com 
or aim me at the sn BLabelPunk im 100% possitive that this is correct

Comments