Trans-siberian Orchestra - World That She Sees Chords & Tabs

 

World That She Sees Chords & Tabs

Trans-siberian Orchestra Chords & Tabs

Version: 1 Type: Tab 0 ratings
1 star 2 stars 3 stars 4 stars 5 stars
comments

World That She Sees Tab

The World That She Sees, #3 on The Christmas Attic
[ Tab from: http://www.guitartabs.cc/tabs/t/trans_siberian_orchestra/world_that_she_sees_tab.html ]
(.32)
E---------|---------|--------|
B---------|---------|--------|
G-6-6-6-6-|--4-6----|--4-4---|
D-6-6-6-6-|4-4-6--x3|--4-4-4-|
A-4-4-4-4-|4-2-4----|--2-2-4-|
E---------|2--------|------2-|
(1.35)
E---------|---------|-------|
B---------|---------|-------|
G-6-6-6-6-|--4-6----|-4-4---|
D-6-6-6-6-|4-4-6--x3|-4-4-4-|
A-4-4-4-4-|4-2-4----|-2-2-4-|
E---------|2--------|-----2-|
(2.27)
E------------------|---------|-----|
B------------------|---------|-----|
G---------6-6-6-6--|--4-6----|-4-4-|
D-4-4-4-4-6-6-6-6--|4-4-6--x3|-4-4-|
A-4-4-4-4-4-4-4-4--|4-2-4----|-2-2-|
E-2-2-2-2----------|2--------|-----|
                                      (5.14)
E--|---------|------|----------|----------|
B--|---------|------|----------|----------|
G--|--4-6----|-4-4--|--4-6-----|-4-4------|
D--|4-4-6--x3|-4-4--|4-4-6--x15|-4-4-4--4-|
A--|4-2-4----|-2-2--|4-2-4-----|-2-2-4--4-|
E--|2--------|------|2---------|-----2--2-|

Simple song, but fun to play
-End
Comments