Trans-siberian Orchestra - What Is Eternal Chords & Tabs

 

What Is Eternal Chords & Tabs

Trans-siberian Orchestra Chords & Tabs

Version: 1 Type: Tab 0 ratings
1 star 2 stars 3 stars 4 stars 5 stars
comments

What Is Eternal Tab

   
What is Eternal, #6 on Beethoven's Last Night
Tuned  Down
Piano Intro-
(.51)
E-------------------------------------------|
B-------------------------------------------|
G-4-------------2-------------------------4-|
D-4-------------2---------------5-4-2-4-4-4-|
A-2-2-222-2-2-2-0-0-0-0-0-0-0-0-5-4-2-4-4-2-|
E-------------------------------3---0-2-2---|
    ***********   *************
(1.20)
E-------------------------------------------------|
B-------------------------------------------------|
G-------------------------------------2-2-2-------|
D-2-2-2-2-2-2-4-4-4-4-4-4-5-5-5-5-5-5-2-2-2-4-4-4-|
A-2-2-22-2-2-4-4-4-4-4-4-5-5-5-55-5-0-0-0-4-4-4-|
E-0-0-0-0-0-0-2-2-2-2-2-2-3-3-3-3-3-3-------2-2-2-|
  *********************************************
(1.47)
E-----------------------------------------------------|
B-----------------------------------------------------|
G---------4-------------2-----------------------------|
D---------4-------------2-------------------5-4-2-4-4-|
A---------2-2-222-2-2-2-0-0-0-0-0-0-0-0-0-0-5-4-2-4-4-|
E-222-222-----------------------------------3---0-2---|
  *******   ***********   *****************
(2.05)
E---------------------------------------------------------|
B---------------------------------------------------------|
G-4-2-----4-2-----4-2-----4-2---------------2-------------|
D-4-2-5-4-4-2-5-4-4-2-5-4-4-2-5-------------2-------------|
A-2-0-5-4-2-0-5-4-2-0-5-42-0-5-------------0-0-0-0-0-0-0-|
E-----3-2-----3-2-----3-2-----3-3-3-3-3-3-3---------------|
                                ***********   ***********
E-----------------------|
B-----------------------|
G---------------2-2-----|
D-5-------------2-2-4-4-|
A-5-------------0-0-4-4-|
E-3-3-3-3-3-3-3-----2-2-|
Ode to Joy on Piano
(3.17)
E-------------------------------------------------------|
B-------------------------------------------------------|
G-----------------------------------------------------4-|
D-----------------------------------------------------4-|
A-----------------------------------------------------2-|
E-3-3-3-3-3-2-0-0-0-0-0-0-2-2-2-2-2-2-2-2-2-2-2-2-2-2---|
  ***************************************************
E---------------------------------------------|
B---------------------------------------------|
G---------------2-----------------------------|
D---------------2-------------------5-4-2-4-4-|
A-2-2-2-2-2-2-2-0-0-0-0-0-0-0-0-0-0-5-4-2-4-4-|
E-----------------------------------3---0-2-2-|
  *************   *****************
E-----------------------------------------|
B-----------------------------------------|
G-------4-------2-------------------------|
D-------4-------2-----5-4-2-4-------------|
A-------2-2-2-2-0-0-0-5-4-2-4-------------|
E-2-2-2---------------3---0-2-2-2-2-2-2-2-|
  *****   *****   ***         ***********
(3.58)
E-----------------------------------|
B-----------------------------------|
G-4-4-4-----4-4-4-----------------4-|
D-4-2-4-5-7-4-2-4-5-7-5-7-5-7-7-7-4-|
A-2-2-2-5-7-2-2-2-5-7-5-7-5-7-7-7-2-|
E---0---3-5---0---3-5-3-5-3-5-5-5---|

*=Palm Mute

-End
[ Tab from: http://www.guitartabs.cc/tabs/t/trans_siberian_orchestra/what_is_eternal_tab.html ]
Comments