Trans-siberian Orchestra - Siberian Sleigh Ride Chords & Tabs

 

Siberian Sleigh Ride Chords & Tabs

Trans-siberian Orchestra Chords & Tabs

Version: 1 Type: Tab 0 ratings
1 star 2 stars 3 stars 4 stars 5 stars
comments

Siberian Sleigh Ride Tab

   
Siberian Sleigh Ride, An awesome instrumental song to learn, number 12 on The Lost Christmas Eve
(Standard Tune)
(Intro) clean guitar playing part of jingle bells
(.10)
E----------------|
B----------------|
G-22-22-22-22-22-|
D-22-22-22-22-22-|
A-00-00-00-00-00-|
E----------------|
  **************
Repeats a lot
Other guitar, let some feedback, then pick scrape
(.21)
E---------------------------------|
B-5-7-8-7-5-----------------------|
G-----------7-6-4-<6>-4-------4---|
D-----------------------7-5-7---7-|
A---------------------------------|
E---------------------------------|
(.27)
E---------------------------------------------|
B---------------------------------------------|
G-----------------------------------4-------7-|
D-----<5>-----<5>-----<5>-----<5>-7---7-------|
A-5-7-----5-7-----5-7-----5-7-----------5-8---|
E---------------------------------------------|
  ***     ***     ***     ***
(.32)
E--------------------------------------------|
B-5-7-8-7-5----------------------------------|
G-----------7-6-4-6-4-------4----------------|
D---------------------7-5-7---<7>-7-7-7!(19--|
A--------------------------------------------|
E--------------------------------------------|

E-----------------------------|
B-----------------------------|
G---------------------------4-|
D-----5-----5-----5-----5-7---|
A-5-7---5-7---5-7---5-7-------|
E-----------------------------|
(.42)
E-------------------------------|
B-------------------------------|
G---4-5-<7>---4-5-<7>---4-5-----|7>
D-7---------7---------7---------|
A-------------------------------|
E-------------------------------|

E-------------------------|
B-------------------------|
G-9-7-5-7-5-4-5-4---4-----|
D-----------------7---7-5-|
A-------------------------|
E-------------------------|

E-------------------------------|
B-------------------------------|
G---4-5-<7>---4-5-<7>---4-5-----|7>
D-7---------7---------7---------|
A-------------------------------|
E-------------------------------|

E-------------------------------------------|
B-------------------------------------------|
G-9-7-5-7-5-4-5-4---4-----6b7r6b7r6b7r6b7r6-|
D-----------------7---7-5-------------------|
A-------------------------------------------|
E-------------------------------------------|
Bunch of bends
(.59)
E-12-14-15-14-12-------------------------------|
B----------------15-14-12-14-12----------12----|
G-------------------------------14-12-14----14-|
D----------------------------------------------|
A----------------------------------------------|
E----------------------------------------------|

E--------------------------------------------------|
B-------14b15-14-----------------------------------|
G----12-14b15-14------<12>--------<12>--------<12--|
D-12-------------12-14----14-12-14----14-12-14-----|
A--------------------------------------------------|
E--------------------------------------------------|

E-------------------------------------------12h15p12-------------|
B----------------12-------------------12h15----------15p12-------|
G----------12-14----14-------12h14h15----------------------15p14-|
D-14-12-14-------------12h14-------------------------------------|
A----------------------------------------------------------------|
E----------------------------------------------------------------|
(1.10)
E-12-14-15-14-12-------------------------------|
B----------------15-14-12-14-12----------12----|
G-------------------------------14-12-14----14-|
D----------------------------------------------|
A----------------------------------------------|
E----------------------------------------------|
[ Tab from: http://www.guitartabs.cc/tabs/t/trans_siberian_orchestra/siberian_sleigh_ride_tab.html ]
E-15b17-12----------/17~-|
B----------15-13---------|
G----------------14------|
D------------------------|
A------------------------|
E------------------------|

E----------------------------------------------------|
B-------------------------------------------------12-|
G-------12----------12----------12----------12-14----|
D-12-14----14-12-14----14-12-14----14-12-14----------|
A----------------------------------------------------|
E----------------------------------------------------|
(1.19)
E-------------------------------------|
B----12-13-15----12-13-15----12-13-15-|
G-14----------14----------14----------|
D-------------------------------------|
A-------------------------------------|
E-------------------------------------|

E-12----------------------------------|
B----15-13-15-13-12-13-12----12-------|
G-------------------------14----14-12-|
D-------------------------------------|
A-------------------------------------|
E-------------------------------------|

E-------------------------------------|
B----12-13-15----12-13-15----12-13-15-|
G-14----------14----------14----------|
D-------------------------------------|
A-------------------------------------|
E-------------------------------------|

E-12-------------------------------------------------|
B----15-13-15-13-12-13-12----12----------17-21b22r21-|
G-------------------------14----14-12-14-------------|
D----------------------------------------------------|
A----------------------------------------------------|
E----------------------------------------------------|
(1.37) and before
E----------------|
B----------------|
G-22-22-22-22-22-|
D-22-22-22-22-22-|
A-00-00-00-00-00-|
E----------------|
  **************
Repeats a lot
(1.57)
E-12-9------------9---------------|
B------10---10-12---12-10---10-12-|
G---------9---------------9-------|
D---------------------------------|
A---------------------------------|
E---------------------------------|
Repeats a lot
(2.11)
E-14b15-14-12-|
B-------------|
G-------------|
D-------------|
A-------------|
E-------------|
Repeats a lot, played over above riff
(2.42)
E-------------------------------------|
B----12-13-15----12-13-15----12-13-15-|
G-14----------14----------14----------|
D-------------------------------------|
A-------------------------------------|
E-------------------------------------|

E-12----------------------------------|
B----15-13-15-13-12-13-12----12-------|
G-------------------------14----14-12-|
D-------------------------------------|
A-------------------------------------|
E-------------------------------------|
(2.48)
E-------------------------------------|
B----12-13-15----12-13-15----12-13-15-|
G-14----------14----------14----------|
D-------------------------------------|
A-------------------------------------|
E-------------------------------------|

E-12-----------------------------------|
B----15-13-15-13-12-13-12----12--------|
G-------------------------14----14-12--|
D--------------------------------------|  (x3)
A--------------------------------------|
E--------------------------------------|
(2.57)
E-12----------------------------------|
B----15-13-15-13-12-13-12----12-------|
G-------------------------14----14-12-|
D-------------------------------------|
A-------------------------------------|
E-------------------------------------|

E-----------------------------------|
B-----------------------------------|
G-12-14-12-14-12-14-12-14-12-14-14\-|
D-----------------------------------|
A-----------------------------------|
E-----------------------------------|

-End

Key
*= Palm Mute
/\ = Slides
~= tremelo
b= bend
r= release
<7>= Artificial Harmonic
7!(19)= Tapped Harmonic

Awesome song, Enjoi, Rock on, comments welcome

nsxz0r@gmail.com
Comments