Trans Siberian Orchestra - Old City Bar Chords & Tabs

 

Old City Bar Chords & Tabs

Trans Siberian Orchestra Chords & Tabs

Version: 1 Type: Bass Tab 0 ratings
1 star 2 stars 3 stars 4 stars 5 stars
comments

Old City Bar Bass Tab

 Trans-Siberian Orchestra "Old City Bar"
 
 In truth, I don't think there is any bass in this song,
 But it sounds simply awesome if you have an acoustic bass,
 and you add this line up behind your guitar buddy's playing.

 But, if that is a bass I hear, this is how it rolls.

G|-3---2---0------------------------3---2---0---------------------|
D|-------------3---1---0------------------------3---1---0---------|
A|-------------------------3---3----------------------------3---3-|
E|----------------------------------------------------------------|

G|-3---2---0------------------------3---2---0---------------------|
D|-------------3---1---0------------------------3---1---0---------|
A|-------------------------3---3----------------------------3---3-|
E|----------------------------------------------------------------|

G|-3---2---0------------------------3---2---0---------------------|
D|-------------3---1---1---3---3----------------3---1---0---------|
A|----------------------------------------------------------3---3-|
E|----------------------------------------------------------------|

G|-3---2---0------------------------3---2---0---------------------|
D|-------------3---1---0------------------------3---1---0---------|
A|-------------------------3---3----------------------------3---3-|
E|----------------------------------------------------------------|

G|-3---2---0------------------------3---2---0---------------------|
D|-------------3---1---0------------------------3---1---0---------|
A|-------------------------3---3----------------------------3---3-|
E|----------------------------------------------------------------|

G|-3---2---0------------------------3---2---0---------------------|
D|-------------3---1---0------------------------3---1---1---3---3-|
A|-------------------------3---3----------------------------------|
E|----------------------------------------------------------------|
[ Tab from: http://www.guitartabs.cc/tabs/t/trans_siberian_orchestra/old_city_bar_btab.html ]
G|-8---7---5---3---8---7---5---3---8---7---5---3---8---7---5---3--|
D|----------------------------------------------------------------|
A|----------------------------------------------------------------|
E|----------------------------------------------------------------|

G|-8---7---5---3---8---7---5---3---5---5---3---3---5---5---3---3--|
D|----------------------------------------------------------------|
A|----------------------------------------------------------------|
E|----------------------------------------------------------------|

G|-0---3---0---3---0---3---0---3---0---3---0---3---0---3---5---5---5---5|
D|----------------------------------------------------------------------|
A|----------------------------------------------------------------------|
E|----------------------------------------------------------------------|

G|-3---2---0------------------------3---2---0---------------------|
D|-------------3---1---0------------------------3---1---1---3---3-|
A|-------------------------3---3----------------------------------|
E|----------------------------------------------------------------|

G|-3---2---0------------------------3---2---0---------------------|
D|-------------3---1---0------------------------3---1---0---------|
A|-------------------------3---3----------------------------3---3-|
E|----------------------------------------------------------------|

G|-3---2---0------------------------3---2---0---------------------|
D|-------------3---1---0------------------------3---1---0---------|
A|-------------------------3---3----------------------------3---3-|
E|----------------------------------------------------------------|

G|-3---2---0------------------------3---2---0---------------------|
D|-------------3---1---0------------------------3---1---0---------|
A|-------------------------3---3----------------------------3---3-|
E|----------------------------------------------------------------|

G|-3---2---0------------------------8---7---5---3---8---7---5---3-|
D|-------------3---1---1---3---3----------------------------------|
A|----------------------------------------------------------------|
E|----------------------------------------------------------------|

 Tab'd by Nyte: (Nytethorn@aol.com)
Comments