Trans-siberian Orchestra - Midnight Chords & Tabs

 

Midnight Chords & Tabs

Trans-siberian Orchestra Chords & Tabs

Version: 1 Type: Tab 0 ratings
1 star 2 stars 3 stars 4 stars 5 stars
comments

Midnight Tab

"Midnight" #2
Standard Tuning
(.53)
E----------------------------------------------------|
B----------------------------------------------------|
G----------------------------------------------------|
D----------------------------------------------------|
A-333-3-333-3-444-4-------333-3-333-3-444-4-666-4(6)-|
E-------------------666-6----------------------------|
All Palm Muted
Repeat 3 times
(1.29)
E----------------------------------------------------|
B----------------------------------------------------|
G----------------------------------------------------|
D----------------------------------------------------|
A-333-3-333-3-444-4-------333-3-333-3-444-4-666-4(6)-|
E-------------------666-6----------------------------|
All Palm Muted
Repeat twice
(1.50)
E---------------------------|
B---------------------------|
G---------------------------|
D-3-6-5-3-5-<3>-3-----------|
A-3-----3-------3-6-4-3-4-6-|
E-----------------6-4-3-4-6-|
                *********
Repeat 3 times
Fades in to "Fate"

<>=Artificial Harmonic

-End
[ Tab from: http://www.guitartabs.cc/tabs/t/trans_siberian_orchestra/midnight_tab.html ]
Comments