Trans-siberian Orchestra - March Of The Kings Hark The Herold Angel Sing Chords & Tabs

 

March Of The Kings Hark The Herold Angel Sing Chords & Tabs

Trans-siberian Orchestra Chords & Tabs

Version: 1 Type: Tab 0 ratings
1 star 2 stars 3 stars 4 stars 5 stars
comments

March Of The Kings Hark The Herold Angel Sing Tab

This song is a great one to learn.  Ive revised it from what it used to be.
{Standard Tuning}

E--------------------------------------------------|
B----------------8/10~-8-10-11-10-8----10-8--------|
G-7-7-9h10-9h10p7----10------------10-9----10-9b10-|
D--7-----------------------------------------------|
A--------------------------------------------------|
E--------------------------------------------------|

E---------------------------------------------|
B----------------8/10~--8-10-11-10-8----------|
G-7-7-9h10-9h10p7-----10------------10-10-9-7-|
D--7------------------------------------------|
A---------------------------------------------|
E---------------------------------------------|

E----------------------------------------------|
B--------------------8/10~------8--------------|
G------------------10-----7-9-10-10-9-7-6b7r6--|
D-2-2-2-3-2-0-2-3-5--------------------------7-|
A-2-2-2-3-2-0-2-3-5----------------------------|
E-0-0-0-1-0---0-1-3----------------------------|
[ Tab from: http://www.guitartabs.cc/tabs/t/trans_siberian_orchestra/march_of_the_kings_hark_the_herold_angel_sing_tab.html ]
E----------------------------------------------|
B-----------------------8-10-11-10-8-----------|
G---------------------10-------------10-10-9-7-|
D-9-9-9-10-9-7-9-10-12-------------------------|
A-7-7-7--8-7-5-7--8-10-------------------------|
E----------------------------------------------|
(.37)Quick Part
E---------------------------------|
B--------7------------------------|
G-7-6-7-9-9-7-6-4-6-7-9-6-(67697--|
D---------------------------------|
A---------------------------------|
E---------------------------------|
PM|______________________________|
E-----------------------------|
B--------7--------------------|
G-7-6-7-9-9-7-6-4-6-7-9-6-----|7>
D-----------------------------|
A-----------------------------|
E-----------------------------|
PM|______________________| Then Repeat this.
(.51)
E--------------------------------------------------|
B--------------------------------------------------|
G--------------------------6-7-6-------------------|
D-7-9-11-9-7-7-9-11-9-7-7-9------9-7-------7-9-5-7-|
A-----------------------------------10-9-10--------|
E--------------------------------------------------|
PM                        |_____________________|
E---------------------------------------------------------|
B---------------------------------------------------------|
G--------------------------------6-7-6--------------------|
D-7-9-11-9-<7>-7-<9>-11-9-<7>-7-9------9-7--------7-9-5-7-|
A------------------------------------------10-9-10--------|
E---------------------------------------------------------|
PM                           |_________________________|
After that, Repeat the Quick part. Then play..
E----------------------------------------------------------|
B----------------------------------------------------------|
G-------------------------------6-7-6----------------------|
D-7-9-11-9-<7>-7-9-11-9-<7>-7-9-------9-7--------7-9-5-----|7>
A-----------------------------------------10-9-10----------|
E----------------------------------------------------------|
PM                         |__________________________|
E---------------------------------------------------------|
B---------------------------------------------------------|
G-------------------------------6-7-6---------------------|
D-7-9-11-9-<7>-7-9-11-9-<7>-7-9------9-7--------7-9-5-----|7>
A----------------------------------------10-9-10----------|
E---------------------------------------------------------|
PM                         |_______________________|
(1.33)
E----------------------------------|
B--------7-------------------------|
G-7-6-7-9--9-7-6-4-6-7-9-6-(67697--|
D----------------------------------|
A----------------------------------|
E----------------------------------|
*Not PM'ed*
E------------------------------|
B---------7--------------------|
G-7-6-7-9---9-7-6-4-6-7-9-6----|7>
D------------------------------|
A------------------------------|
E------------------------------|
*Not PM'ed*
E----------------------------------|
B--------7-------------------------|
G-7-6-7-9--9-7-6-4-6-7-9-6-(67697--|
D----------------------------------|
A----------------------------------|
E----------------------------------|
*Not PM'ed*
[= (1.46) Change in style
E--------------------------------------------|
B---------7------------------------7-------7-|
G-7-6-7-9---9-7-6-4-6-7-9-6[(67697)-(67697)--|
D--------------------------------------------|
A--------------------------------------------|
E--------------------------------------------|

E----------------------------------------------------|
B-----7-8-10-8-7---------7-------7---7-8-10-8-7------|
G-7-9------------9(67696)-(67697)-7-9----------9-7-9-|
D----------------------------------------------------|
A----------------------------------------------------|
E----------------------------------------------------|

E--7--------------7---------------7------------|
B---10-8-7---------10-8-7----------10-8-7------|
G-7-------9-7-9-7---------9-7-9-7--------9-7-9-|
D----------------------------------------------|
A----------------------------------------------|
E----------------------------------------------|
Slowing Down here
E---7-------------|
B----10-8-7-------|
G-7---------9-7-9-|
D-----------------|
A-----------------|
E-----------------|

SOLO (2.09)

E---10-9b10-9-10-15-13b14-12-17-17-15b17-15-14-12-14-|
B-10-------------------------------------------------|
G----------------------------------------------------|
D----------------------------------------------------|
A----------------------------------------------------|
E----------------------------------------------------|

E-----------------14-13b14-12-17---------------------|
B---15-14b15-14-15--------------17-15b17-14-14-12----|
G-14---------------------------------------------14\-|
D----------------------------------------------------|
A----------------------------------------------------|
E----------------------------------------------------|

E------14-15-17-17-17--14b15-14-14h15p14-12-|
B-15-17--------------15---------------------|
G-------------------------------------------|
D-------------------------------------------|
A-------------------------------------------|
E-------------------------------------------|

E-17b19-17--14b15-14-14h15p14-12----|
B---------15------------------------|
G--------------------------------14-|
D-----------------------------------|
A-----------------------------------|
E-----------------------------------|

E-19-19-17b19-17-15h17p15-14-15---14-15-16b17-|
B------------------------------17-------------|
G---------------------------------------------|
D---------------------------------------------|
A---------------------------------------------|
E---------------------------------------------|
(3.02-3.03)
E------------14-17-17------------|
B-15-15-17-17--------17b19r17-15-|
G--------------------------------|
D--------------------------------|
A--------------------------------|
E--------------------------------|

E-19-19-17b19-17-15h17p15-14-15---14-15-16b17---------|
B------------------------------17------------15-15-17-|
G-----------------------------------------------------|
D-----------------------------------------------------|
A-----------------------------------------------------|
E-----------------------------------------------------|
End SOLO
Quick Part Variations (3.23)
E----------------------------------|
B--------7-------7----7-8-10-8-7---|
G-(67697)-(67697)--7-9-----------9-|
D----------------------------------|
A----------------------------------|
E----------------------------------|
(Repeat this once more) Then...
E-----------------------------------------|
B--------12-10----------------------------|
G-(67697)-----12-11-9-(67697)-11-9--------|
D---------------------------------12-11-9-|
A-----------------------------------------|
E-----------------------------------------|

E------------------------------------------|
B------------------------------------------|
G------------------------------------------|
D-(67697)-12-11-9--------------------------|
A-----------------12-10-(797109)-12-10-9-7-|
E------------------------------------------|

E------------------------------------------------|
B------------------------------------------------|
G---------------------------------7-6-4-6-11-9-7-|
D---------------------------------7-6-4-6-11-7-7-|
A-5-0-5-0-5-0-5-0-5-0-5-0-5-0-5-0-5-4-2-4--9---5-|
E------------------------------------------------|
PM|______________________________|

This pretty much does it, I think it is about 100% Correct.
KEY:
PM|___| = Palm Mute for so long.
ex. 15h17p15 = 15 hammer-on 17 pull-off 15
ex. 15b16 = 1/2 bend 15 bend to 16
ex. 15b17 = full bend 15 bend to 17
ex. (67697) = fast trill
ex. <7> = Artificial Harmonics
ex. 17b19r17 = 17 bend 19 release 17
~ = Vibro
/,\ = Slide up or down

Any questions, comments, or thoughts please feel free to mail me.
Good Luck, and Rock On TSO Fans!
Comments