Trans-siberian Orchestra - Joy Angels We Have Heard On High Chords & Tabs

 

Joy Angels We Have Heard On High Chords & Tabs

Trans-siberian Orchestra Chords & Tabs

Version: 1 Type: Tab 0 ratings
1 star 2 stars 3 stars 4 stars 5 stars
comments

Joy Angels We Have Heard On High Tab

Here is a song i've worked on along with O come all ye faithful/O holy night.

!**H=Hold out note**!
I think I got this one down.

E-12-13-15-15-13-12-10------------------13-12-13-10--------|
B----------------------8-10-12-15-13-15-------------12--12-|
G-----------------------------------------------------12---|
D----------------------------------------------------------|
A----------------------------------------------------------|
E----------------------------------------------------------|

E---13-12-10-|
B-15---------|
G------------|
D------------|
A------------|
E------------|

E-12-13-15------13-12---------|
B----------13-15-----13-15-12-|
G-----------------------------|
D-----------------------------|
A-----------------------------|
E-----------------------------|
Here comes a faster part.

E------------15------17-15-15-20-19-20------------------15-|
B-13-17-15-17---18-18------------------20-17-13-15-17-18---|
G----------------------------------------------------------|
D----------------------------------------------------------|
A----------------------------------------------------------|
E----------------------------------------------------------|

E-17-15-----------------------------13-12----|
B-------18-17-15-17-13-12-13-15---12------15-|
G-------------------------------12-----------|
D--------------------------------------------|
A--------------------------------------------|
E--------------------------------------------|

E------------15------17-15-15-20-19-20-------------------|
B-17-13-15-17--18-18-------------------20-17-13-15-17----|
G-----------------------------------------------------14-|
D--------------------------------------------------------|
A--------------------------------------------------------|
E--------------------------------------------------------|

E-15-13-12----------------|
B----------15-13---13-12--|H
G----------------12-------|
D-------------------------|
A-------------------------|
E-------------------------|
Now comes the singing.  *=Has a few quick bends

(2:17)
[ Tab from: http://www.guitartabs.cc/tabs/t/trans_siberian_orchestra/joy_angels_we_have_heard_on_high_tab.html ]
E-12-12-12-15-15-13-12-12--12-15-12-------|
B------------------------15---------15-13-|
G-----------------------------------------|
D-----------------------------------------|
A-----------------------------------------|
G-----------------------------------------|

E-12-12-12-15-15-13-12*-12-10-12-15-12-------|
B--------------------------------------15-13-|
G--------------------------------------------|
D--------------------------------------------|
A--------------------------------------------|
E--------------------------------------------|

E-15H-17-15-13-12-13H-15-13-----------------------------|
B-------------------------17-15-17H-18-17-15-13-15------|
G-------------------------------------------------12-12-|
D-------------------------------------------------------|
A-------------------------------------------------------|
E-------------------------------------------------------|

E-------12-13-12----|
B-13-15----------15-|
G-------------------|
D-------------------|
A-------------------|
E-------------------|

E------------15------17-15-15-20-19-20------------------|
B-13-17-15-17---18-18-----------------20-17-13-15-17-18-|
G-------------------------------------------------------|
D-------------------------------------------------------|
A-------------------------------------------------------|
E-------------------------------------------------------|

E-15-17-15-------------------------------13-12----|
B---------18-17-15-17-13-12-13-15---12-15------15-|
G---------------------------------12--------------|
D-------------------------------------------------|
A-------------------------------------------------|
E-------------------------------------------------|

E-------------15------17-15-15-20-19-20-------------------|
B-17-13-15-17----18-18------------------20-17-13-15-17----|
G------------------------------------------------------14-|
D---------------------------------------------------------|
A---------------------------------------------------------|
E---------------------------------------------------------|

E-15-13-12------------------|
B---------15-13--13-12H-13--|H
G--------------12-----------|
D---------------------------|
A---------------------------|
E---------------------------|


That Wraps that song up, good luck all and enjoy!  If you play the song as you play,
you'll probably understand this best to learn, and find out if i missed any special
holds and stuff.

(was my first tab, may revise in future)
Comments