Trans Siberian Orchestra - First Snow Chords & Tabs

 

First Snow Chords & Tabs

Trans Siberian Orchestra Chords & Tabs

Version: 3 Type: Tab 0 ratings
1 star 2 stars 3 stars 4 stars 5 stars
comments

First Snow Tab

   
This is a nice and hopefully pretty easy song for you to learn by TSO, Should be 100%
correct. This song is on their first cd, Christmas Eve and other stories I believe.
Standard Tuning
[ Tab from: http://www.guitartabs.cc/tabs/t/trans_siberian_orchestra/first_snow_tab_ver_3.html ]
E------5-----------5-----------3----------5-----|
B----7---7-------5---5-------3---3-------2--5-2-|
G---2------7---2-------6---2-------4---2--------|
D-0---------0------------0-----------0----------|
A-----------------------------------------------|
E-----------------------------------------------|
(.19)
E-----------------------------------------------------------|
B-----------------------------------------------------------|
G-7---6---7-----4---6---7-7-6-7---7---6---7-----4---6---7-7-|
D-0-0-0-0-0-0-0-0-0-0-0-0-0-0-0-0-0-0-0-0-0-0-0-0-0-0-0-0-0-|
A-----------------------------------------------------------|
E-----------------------------------------------------------|
PM  *   *   * *   *   *         *   *   *   * *   *   *
Repeat this once.
(.33-1.02)
E---------------------------------------------------------|
B---------------------------------------------------------|
G-7---6---7-----4---6---7-7-6-7 7---6---7-----4---6---7-7-|
D-0-0-0-0-0-0-0-0-0-0-0-0-0-0-0 0-0-0-0-0-0-0-0-0-0-0-0-0-|
A---------------------------------------------------------|
E---------------------------------------------------------|
PM  *   *   * *   *   *           *   *   * *   *   *
Repeat 4 times
(1.02)
E------2-0---3-2-0---------------------|
B----------3-------3-------------------|
G-2-4-2--------------2-4-2-2-2-2-2-0-2-|
D-0-0-0--------------0-0-0-0-0-0-0-0-0-|
A--------------------------------------|
E--------------------------------------|
(1.18)
E----------------------------------------------------------|
B----------------------------------------------------------|
G-7---6---7-----4---6---7-7-6-7--7---6---7-----4---6---7-7-|
D-0-0-0-0-0-0-0-0-0-0-0-0-0-0-0--0-0-0-0-0-0-0-0-0-0-0-0-0-|
A----------------------------------------------------------|
E----------------------------------------------------------|
PM  * *   *   *   *            *   *   * *   *   *   *
Repeat 4 times
(1.47)
E-------2-0---3-2-0---------------------|
B-----------3-------3-------------------|
G-2-4-2---------------2-4-2-2-2-2-2-0-2-|
D-0-0-0---------------0-0-0-0-0-0-0-0-0-|
A---------------------------------------|
E---------------------------------------|
(2.02)
E-------------------------|
B-----------8-6-5-6-5-3-1-|
G-2-2/4-4/5---------------|
D-0-0/0-0/0---------------|
A-------------------------|
E-------------------------|
Repeat 4 times, then onlast time do this..(2.30)
E---------------------|
B-8-6-5-6-5-3-1-------|
G---------------2---2-|
D---------------2-0-2-|
A---------------0-0-0-|
E---------------------|
(2.39)
E-----------------------------------------------------------|
B-----------------------------------------------------------|
G-7---6---7-----4---6---7-7-6-7---7---6---7-----4---6---7-7-|
D-0-0-0-0-0-0-0-0-0-0-0-0-0-0-0-0-0-0-0-0-0-0-0-0-0-0-0-0-0-|
A-----------------------------------------------------------|
E-----------------------------------------------------------|
PM  *   *   * *   *   *         *   *   *   * *   *   *
(3.21) There is a little background playing, but this is main part.
E---------------|
B-------------7-|
G-4-6-4-6-4-6-7-|
D-0-0-0-0-0-0-0-|
A-------------0-|
E---------------|
And That is it... All thats really in this tab for the key is
/ = Slide up
PM(*) = Palm Mute
Good Luck, and have fun, TSO Rocks, Have a good Christmas!


*Revision soon
Comments