Trans-siberian Orchestra - Figaro Chords & Tabs

 

Figaro Chords & Tabs

Trans-siberian Orchestra Chords & Tabs

Version: 1 Type: Tab 0 ratings
1 star 2 stars 3 stars 4 stars 5 stars
comments

Figaro Tab

Figaro revised
Track 9 Beethoven CD
Standard Tuning


E------------------------------------------|
B------------------------------------------|
G-----------------------------9-11-9-11-12-|
D--12-11-12-11-12----12-11-12--------------|
A------------------------------------------|
E------------------------------------------|

--------------------------------------------|
-----------------------------11-12----------|
--14-13-14-13-14----14-13-14-------14-12-11-|
--------------------------------------------|
--------------------------------------------|
--------------------------------------------|
                                                 (.06)
-----------------------------------------------------------------------|
-----------------------------------------------------------------------|
-----------11-12-11-------------------------------------------11-------|
--14-13-14----------14-12-11-12-14-12-11-------11---12--------------14-|
-----------------------------------------12-14-------------------------|
-----------------------------------------------------------------------|

----------------------------------------------------------|
------------------------------------------------15--------|
--------------11--14------12----11------11--14------------|
--12------12------------------------12--------------------|
------12--------------------------------------------------|
----------------------------------------------------------|

------------------------------------------------------------|
--14------12------15--14--12--------15--14--12--------------|
--------------14----------------14--------------14----12----|
------------------------------------------------------------|
------------------------------------------------------------|
------------------------------------------------------------|

(.17)

--------------------------------------------------------------------|
--------------------------------------------------------------------|
--11------------------11--------------------------------------12-11-|
--------14----12---------14---12-11-------------------14------------|
------------------------------------14-12-10------------------------|
---------------------------------------------14-12-10---------------|

----------------------------------------|
----------------------------------------|
--------------------------11------14-12-|
--14-12-11------------------------------|
-----------14-12-10---------------------|
--------------------14-12---------------|

----------------------------------------------------------------------|
------------------------------------------10-12---13--------12----10--|
--11------------------------------9-11-12-----------------------------|
-----14-12-11-------------9-11-12-------------------------------------|
--------------14-12-10------------------------------------------------|
-----------------------14---------------------------------------------|

----------------------------------------------------------|
--12----14----15--------14----15--------14--15--------14--|
------------------14--------------14------------14--------|
----------------------------------------------------------|
----------------------------------------------------------|
----------------------------------------------------------|

------------------------------------------|
--15--14--15--14--15-14-------15-14-------|
------------------------16-14-------16-14-|
------------------------------------------|
------------------------------------------|
------------------------------------------|
                             (.32)
-----------------------------------------------|
--15-14------------------------14-15--------14-|
--------16-14---------------14-----------------|
--------------17-16-14-12------------16--14----|
-----------------------------------------------|
-----------------------------------------------|

--------------------------------------------------|
--15-------14--15--15----14--14--15--15--14-------|
--------14----------------------------------14-14-|
-----16-------------------------------------------|
--------------------------------------------------|
--------------------------------------------------|

              (.40)
--------------------------------|
-------------------------7-9-10-|
--14--14--14---9-8-9-8-9--------|
--------------------------------|
--------------------------------|
--------------------------------|

--------------------------------------------------|
10-7-9-10--10-------------------------------------|
--------------7-9-11-9-7--------------------------|
-------------------------11-9-7-6-7-9-7-6-------7-|
------------------------------------------9-7-5---|
--------------------------------------------------|

---------------------------------------|
----------7-9-10-10-7-9-10-10----------|
9-8-9-8-9---------------------7-9-11-9-|
---------------------------------------|
---------------------------------------|
---------------------------------------|

------------------------------------------------|
------------------------------------------------|
7---------------------------11--14--11----------|
--11-9-7-6-7-9-7-6-------7-------------13----14-|
-------------------9-7-5------------------14----|
------------------------------------------------|

----------------------------------|
------------------------------9---|
9--12--9-----------7--10----------|
---------11----12--------7--6---6-|
------------12--------------------|
----------------------------------|
                                (1.05)
------------------------------------------------------|
--10------12------14----15--14------------------------|
------------------------------------------------------|
7----7--9----9-11----12-------------------12-13-16-14-|
---------------------------------12-14-16-------------|
------------------------------------------------------|
                                 (Repeats)


------------------------------------------|
13-12-17-15-14----------------------------|
---------------16-14----------------------|
------------------------------12-13-16-14-|
---------------------12-14-16-------------|
------------------------------------------|

--------------------------------------------------|
--------------------------------------------------|
--------------------------------------------------|
-----------12-13-16-14----------12-14-15-14-12-10-|
12--14--16-------------12-14-15-------------------|
--------------------------------------------------|

(1.26)
---------------------------------------------------|
---------------------------------------------------|
-----------------------------------------------6---|
9h10h9h10h9h10h9h10h9h10h9h10h9h10h9h10-----7------|
----------------------------------------12---------|
---------------------------------------------------|

-------------------------------------5---------------------|
--------------5--5--5--5----5--7-5------------7-7----------|
-----------------------------------6---6-4-7-------7-4-----|
--9--6-------------------------------------------------6-6-|
--------9--7-----------------------------------------------|
-----------------------------------------------------------|

(1.34)
--------------------------------------------5----|
----------------------------5-5-5-5-5-7-5--------|
--------------6---------------------------6----6-|
7-----------7---9--6-----------------------------|
--7--4--4-------------9--7-----------------------|
-------------------------------------------------|

------------------------------------------|
----7-7-----------------------------------|
4-7-----7-4-------------------------------|
------------6-6-7--7-9-11-9-7-9-11-7-11-7-|
------------------------------------------|
------------------------------------------|

-------------------------------------------------------------|
-------------------------------------------------------------|
-------------------------------------------------------------|
9-9-11-12-11-9-11-12-9-12-9-11-11-12-14-12-11-12-14-11-14-11-|
-------------------------------------------------------------|
-------------------------------------------------------------|
[ Tab from: http://www.guitartabs.cc/tabs/t/trans_siberian_orchestra/figaro_tab.html ]
----------------------------------------------------------------|
----------------------------------------------------------------|
----------------------------------------------------------------|
12-12-14-16-14-12-14-16-12-16-12-14-14-17-14-16-16-19-16-17-17-|
----------------------------------------------------------------|
----------------------------------------------------------------|

---------------------------------------|
---------------------------------------|
11-12-11-12-11-12-11-12-11-12-11-12-11-|
---------------------------------------|
---------------------------------------|
---------------------------------------|

-----------------------------------------------|
-----------------------------------------------|
12-11----11------------------------------------|
------14----14-12-11-12-11---------------------|
---------------------------14-12-14-12-10-9----|
-----------------------------------------------|

(1.56)
----------------------------------------|
----------------------------------------|
---------------------------9-11-9-11-12-|
12-11-12-11-12----12-11-12--------------|
----------------------------------------|
----------------------------------------|

------------------------------------------|
---------------------------11-12----------|
14-13-14-13-14----14-13-14-------14-12-11-|
------------------------------------------|
------------------------------------------|
------------------------------------------|

-------------------------------------------------------|
-------------------------------------------------------|
-----------11-12-11------------------------------------|
--14-13-14----------14-12-11-12-14-12-11-------11---12-|
-----------------------------------------12-14---------|
-------------------------------------------------------|

(2.03)
-------------------------------------|
----------------------------------15-|
11------------1114-12-11---11-14----|
--14-12----12-------------12---------|
--------12---------------------------|
-------------------------------------|

-----------------------------------------------------|
14-12---15--14--12----15--14--12---------------------|
-----14------------14------------14--14-14-12--12-12-|
-----------------------------------------------------|
-----------------------------------------------------|
-----------------------------------------------------|
                         Solo (2.12)
-------------------------------------------------|
-------------------------------------------------|
--11--11-11--------------------------------------|
------------14--14-14----12-11----------------11-|
-------------------------------14-12-14-12-14----|
-------------------------------------------------|

--------------------------------------------------|
--------------------------------------------------|
-----------11----------12-11----------------------|
--12-11-12----14-12-14-------14-12-11-12-11-12-14-|
--------------------------------------------------|
--------------------------------------------------|

--------------------------------------------------|
-----------------------12-------------------------|
--11----11-14-12-11-12----14----------------------|
-----14----------------------17-16-14-16-14-16-17-|
--------------------------------------------------|
--------------------------------------------------|

--------------------------------------------------|
-----------------------------------------14-15----|
--14----------14-16-17-14-16-14----14-16-------16-|
-----17-16-17-------------------17----------------|
--------------------------------------------------|
--------------------------------------------------|

--------------------------------------------------|
-----------------15-17----15-14----------------14-|
--18-16----16-18-------18-------16-14-16-14-16----|
--------19----------------------------------------|
--------------------------------------------------|
--------------------------------------------------|

-----------14----------15-------------------------|
--15-14-15----17-15-17----19-17----------------17-|
--------------------------------19-18-19-18-19----|
--------------------------------------------------|
--------------------------------------------------|
--------------------------------------------------|

---------17----------19-17----------------------17--------17-19-20-17-|
19-17-19----20-19-20-------20-19-17-19-17-19-20----20-19-20-----------|
----------------------------------------------------------------------|
----------------------------------------------------------------------|
----------------------------------------------------------------------|
----------------------------------------------------------------------|
                               (2.31)
--19----17----19----21b22-------------------|
--------------------------------------------|
--------------------------------16-14----16-|
--------------------------------------16----|
--------------------------------------------|
--------------------------------------------|

------------------------------------------------------------|
----------------------------------15------14--15--------14--|
--14--------16--14------14--16--------------------14--------|
------16------------16--------------------------------------|
------------------------------------------------------------|
------------------------------------------------------------|

-------------------------------|
--15--------14--15--14--15--14-|
------14-----------------------|
-------------------------------|
-------------------------------|
-------------------------------|

-------------------------------------------------|
--15-14-12---------------------------------------|
-----------14-12-11------------------------------|
--------------------14-12-11---------------------|
-----------------------------14-12-10------------|
--------------------------------------14-12-10-9-|

--------------------------15-14-12------------------------------------|
--15-14-12-------------------------15-14-12------------15----12----14-|
-----------14-12-11-------------------------14-12---11----------------|
--------------------14-12---------------------------------------------|
----------------------------------------------------------------------|
----------------------------------------------------------------------|

--------------------------------------------------|
--15----------------------------------------------|
-----16--14--------16--14------16--14-----14--16--|
-------------16------------16----------16---------|
--------------------------------------------------|
--------------------------------------------------|

-------------------------------------------|
--15-14--15----14-15----14--15--14--15--14-|
------------14-------14--------------------|
-------------------------------------------|
-------------------------------------------|
-------------------------------------------|

-------------------------------------------------|
--15-14-12---------------------------------------|
-----------14-12-11------------------------------|
--------------------14-12-11---------------------|
-----------------------------14-12-10------------|
--------------------------------------14-12-10-9-|

--------------------------15-14-12------------------------------------|
--15-14-12-------------------------15-14-12---------------15----12-14-|
-----------14-12-11-------------------------14-12---11----------------|
--------------------14-12---------------------------------------------|
----------------------------------------------------------------------|
----------------------------------------------------------------------|

--------------------------15-14-12------------------------------------|
--15-14-12-------------------------15-14-12---------------15----12-14-|
-----------14-12-11-------------------------14-12---11----------------|
--------------------14-12---------------------------------------------|
----------------------------------------------------------------------|
----------------------------------------------------------------------|
          (2.58)
----------------------------------------------|
-------------------15-15-15-------------------|
----------14-14-14----------11-11-11-14-14-14-|
--12------------------------------------------|
----------------------------------------------|
----------------------------------------------|

                                      (3.12)
------------------------------------------|
------------------15-15-15-15-15-15-------|
---------------------------------------7--|
---------12-12-12----------------------7--|
12-12-12-------------------------------5--|
------------------------------------------|

-End
Timings could be screwed up, but this should be right, good luck
Comments