Trans-siberian Orchestra - Fate Chords & Tabs

 

Fate Chords & Tabs

Trans-siberian Orchestra Chords & Tabs

Version: 1 Type: Tab 0 ratings
1 star 2 stars 3 stars 4 stars 5 stars
comments

Fate Tab

Fate, #3 on Beethoven CD
Standard Tuning
(fades in from "Midnight")  [each of those is repeated more]
E-------------------------------------------------------------|
B-------------------------------------------------------------|
G---------------------------------------5---5---5-------------|
D-------------------------------------5-5-5-5-5-5-------------|
A-(6)[3-3-3-3-4-4-4-4-3-3-3-3-4-4-4-4]3-3-3-33-3-33----------|
E-(6)------------------------------------------------66-44-33-|
      *******************************             ***********
[ Tab from: http://www.guitartabs.cc/tabs/t/trans_siberian_orchestra/fate_tab.html ]
E------------------------|
B------------------------|
G---5---5---5------------|
D-5-5-5-5-5-5------------|
A-3-3-3-3-3-3-33---------|
E---------------66-44-33-|
              **********
[each repeated more]
E---------------------------------------------------------|
B---------------------------------------------------------|
G-----------------------------------5---5--5-------------|
D---------------------------------5-5-5-5-5-5-------------|
A[3-3-3-3-4-4-4-4-3-3-3-3-4-4-4-4]3-3-3-3-3-3-33----------|
E------------------------------------------------66-44-33-|
  *******************************             ***********
[repeated more]           (1.04)
E-------------------------------------|
B-------------------------------------|
G---5---5-------------------------5-5-|
D-5-5-5-5-----------------5-5-55-5-5-|
A-3-3-3-3[5-5-5-5-3-3-3-3]3-3-3-3-3-3-|
E---------3-3-3-3--------]------------|
          ***************

*=Palm Mute

-End
Comments