Trans-siberian Orchestra - Christmas In The Air Chords & Tabs

 

Christmas In The Air Chords & Tabs

Trans-siberian Orchestra Chords & Tabs

Version: 1 Type: Tab 0 ratings
1 star 2 stars 3 stars 4 stars 5 stars
comments

Christmas In The Air Tab

   
Song #13 on The Christmas Attic

(.36)
E----------------------|---------------|
B----------------------|---------------|
G------------5---------|5-5------------|
D-5----------5-3-3-5-5-|5-5-3-3-5-5--x5|
A-5----------3-3-3-5-5-|3-3-3-3-5-5----|
E-3-3333-333---1-1-3-3-|----1-1-3-3----|
    ********
E---------------------------------
B---------------------------------
G-2---2---------------------------
D-2-5-2-5-3-3-3-5-----------------
A-0-5-0-5-3-3-3-5-{3333-3333-3333}
E---3---3-1-1-1-3-----------------
                   **************
{}=repeats for a while
(1.53)
E---------------------------|----------------|
B---------------------------|----------------|
G-----------------5---------|-5-5------------|
D-5-5-5-5-5-5-5-5-5-3-3-5-5-|-5-5-3-3-5-5--x5|
A-5-5-5-5-5-5-5-5-3-3-3-5-5-|-3-3-3-3-5-5----|
E-3-3-3-3-3-3-3-3---1-1-3-3-|-----1-1-3-3----|

E------------------
B------------------
G-2---2-----------5
D-2-5-2-5-3-3-3-5-5
A-0-5-0-5-3-3-3-5-3
E---3---3-1-1-1-3--
(3.02)
E------------------------------|---------------|
B------------------------------|---------------|
G----------------------3-3-5-5-|----3-3-5-5----|
D--------------------3-3-3-5-5-|3-3-3-3-5-5--x9|
A-3333-3333-3333-333-3-1-1-3-3-|3-3-1-1-3-3----|
E--------------------1---------|1-1------------|

E----------------
B----------------
G-7-5-7-5-3-3-3-5
D-7-5-7-5-3-3-3-5
A-5-3-5-3-1-1-1-3
E----------------

*=Palm Mute
Easy song, but fun to play
-End
[ Tab from: http://www.guitartabs.cc/tabs/t/trans_siberian_orchestra/christmas_in_the_air_tab.html ]
Comments